Oops, an error
Loading. Please wait.

Machine Guns And Adjectives bass

109 views 1 this week
1 commentread comment
1 2 3 4 5
2 more votes to show rating
add to favorites
×
Save as Personal and add changes to this tab that will be seen only by you. Learn more ›
×
You can save this tab as Personal to edit and correct it or add notes. All changes will be seen only by you. Learn more »
launch autoscroll
font size
0
reset
guitar tuner
edit
Autoscroll
slow
fast
+/-
esc
set tempo
stop
Asian Kung-Fu Generation - Machine Guns and Adjectives

Tabbed by: XxThreeCheersxX
E-mail: burdickash@gmail.com

Tuning: Standard

Main Riff (x 16)
G|--------------------------------------------------------------------------------|
D|--------------------------------------------------------------------------------|
A|-8--8--8-7-8----7--7-7-------10-10--10--10-8-10----10-10--10--8-9-10-12--12-12--|
E|------------------------8-------------------------------------------------------|

Variation x 4
G|-------------------------------------------------------|
D|-------------------------------------------------------|
A|-8--8--8-8-8--7--7-7--7-10--10--10-10-10-12--12-12--12-|
E|-------------------------------------------------------|

G|-------------------------------------------------------------|
D|-------------------------------------------------------------|
A|-8--8--8-8-8--7--7-7--7-10--10--10-10-10-12--12-12--12-10-12-|
E|-------------------------------------------------------------|

Outro x 2
G|-------------------------------------------------------|
D|-------------------------------------------------------|
A|-8--8--8-8-8--7--7-7--7-10--10--10-10-10-12--12-12--12-|
E|-------------------------------------------------------|

G|-------------------------------------------------------------|
D|-------------------------------------------------------------|
A|-8--8--8-8-8--7--7-7--7-10--10--10-10-10-12--12-12--12-10-12-|
E|-------------------------------------------------------------|

G|-------------------------------------------------------|
D|-------------------------------------------------------|
A|-8--8--8-8-8--7--7-7--7-10--10--10-10-10-12--12-12--12-|
E|-------------------------------------------------------|

G|-----------------------------------------------14--------14-|
D|------------------------------------------------------------|
A|-8--8--8-8-8--7--7-7--7-10--10--10-10-10-12-12-----12-12----|
E|------------------------------------------------------------|

This is a really easy song, just listen to get the rhythm.  Pretty repetitive for an Ajikan song.

Happy playing!  If you have any corrections/suggestions comment or email me!

| /  slide up
| \  slide down
| h  hammer-on
| p  pull-off
| ~  vibrato
| +  harmonic
| x  Mute note
===============================================================================

            
            
Suggest correction
Creating personal tab
Creating personal tab
You can edit any tab online and save it as your Personal.

You can edit, replace or remove any tab part or add personal notes – all changes will be seen only by you.

Personal tabs can be accessed anytime from any device, even offline.
Learn more »
Give kudos to tab author, rate the tab!
1 2 3 4 5
comments
print report bad tab
1 comment total.
0 reply
dragk09 10 Oct 03, 2014 02:05 AM

Damn... i love that song now we just need the lead guitar tab lol. Thanks btw.

guest
You may want to rate the tab now too:
select rating
Wanna post a correction for this tab? Suggest correction