Oops, an error
Loading. Please wait.

Mustang Tab

version 1
version 1

Whole song

Interactive

1,814 views 9 this week
no commentswrite comment
1 2 3 4 5
excellent!
x 3
add to favorites
launch autoscroll
font size
0
reset
how to read this tab
guitar tuner
Tab Pro tools
  • play this tab
  • loop segment
  • change instrument
  • show fretboard
  • metronome
Autoscroll
slow
fast
+/-
esc
set tempo
stop
Contributor
Difficulty
novice
By DeceiveR aka aznlyte aka Jerry F
GL HF

e|--------------------------2--4-----------|
B|---------------4--5-------------5~-------|
G|--1--2--4~-----------4-------------------|x17
D|-----------------------------------------| 
A|-----------------------------------------|
E|-----------------------------------------|
1:02
e|--0-------------------------------------------0--------------|
B|-----4-------------------------------------------4-----------|
G|--------4--2--1~-----1--2--4--2--1--2--4--2---------4--2--1--|
D|-------------------------------------------------------------| 
A|-------------------------------------------------------------|
E|-------------------------------------------------------------|
1:13
e|--------------------------2--4-----------|
B|---------------4--5-------------5~-------|
G|--1--2--4~-----------4-------------------|x4
D|-----------------------------------------| 
A|-----------------------------------------|
E|-----------------------------------------|
1:29
e|--0-----------0-----0-----------0--------|
B|-----4-----4-----4-----4-----4-----------|
G|--------4-----------------4--------------|x2
D|-----------------------------------------| 
A|-----------------------------------------|
E|-----------------------------------------|
1:44
e|--------------------------2--4-----------|
B|---------------4--5-------------5~-------|
G|--1--2--4~-----------4-------------------|x4
D|-----------------------------------------| 
A|-----------------------------------------|
E|-----------------------------------------|
2:00
e|-----------------------------------------------------------|
B|--17--16---------------------------------------------------|
G|----------16--14--13---13--14--16--14----13--14--16--14----|x4
D|-----------------------------------------------------------| 
A|-----------------------------------------------------------|
E|-----------------------------------------------------------|
2:26 listen to song for rythm
e|------------------------------------|
B|------------------------------------|
G|--9--11-13--14--11--9--14--16-------|x2
D|------------------------------------| 
A|--7--9--11--16--13--7--16--14-------|
E|------------------------------------|
2:56
e|--------------------------2--4-----------|
B|---------------4--5-------------5~-------|
G|--1--2--4~-----------4-------------------|x4
D|-----------------------------------------| 
A|-----------------------------------------|
E|-----------------------------------------|
3:13
e|-----------------------------2--4-------|
B|--------------------4--5-----------5----|
G|--1--2--4--1--2--4--------4-------------|x3
D|----------------------------------------| 
A|----------------------------------------|
E|----------------------------------------|
3:27
e|-----------------------------------------------------------|
B|--17--16---------------------------------------------------|
G|----------16--14--13---13--14--16--14----13--14--16--14----|x4
D|-----------------------------------------------------------| 
A|-----------------------------------------------------------|
E|-----------------------------------------------------------|
3:55 -effects-
e|------------------------------------|
B|------------------------------------|
G|--9--11-13--14--11--9--14--16-------|x2
D|------------------------------------| 
A|--7--9--11--16--13--7--16--14-------|
E|------------------------------------|
4:25
e|--------------------------2--4-----------|
B|---------------4--5-------------5~-------|
G|--1--2--4~-----------4-------------------|x3
D|-----------------------------------------| 
A|-----------------------------------------|
E|-----------------------------------------|
4:37
e|-----------------------------2--4-------|
B|--------------------4--5-----------5----|
G|--1--2--4--1--2--4--------4-------------|x3
D|----------------------------------------| 
A|----------------------------------------|
E|----------------------------------------|
comments
We did not receive enough feedback on this tab! Please rate:
print report bad tab
1 2 3 4 5
I want to post or [tab]
guest
You may want to rate the tab now too:
select rating
Please do not post tabs as comments. Select "correction" instead!