Oops, an error
Loading. Please wait.

Rewrite Bass Tab

version 1
version 1

Whole song

3,123 views 15 this week
no commentswrite comment
1 2 3 4 5
please rate
add to favorites
launch autoscroll
font size
0
reset
guitar tuner
Tab Pro tools
  • play this tab
  • loop segment
  • change instrument
  • show fretboard
  • metronome
×
Best way to learn
"Rewrite"
Autoscroll
slow
fast
+/-
esc
set tempo
stop
Contributor
Difficulty
intermediate
Asian Kung-Fu Generation - Rewrite

Tabbed by: XxThreeCheersxX
E-mail: phantomhiveghost@gmail.com

Tuning: Standard

This is a very fun song to play, with some great fills.  It's
not too overly difficult once you give it a few tries.
Happy playing!

Edited 2/24/13 - Slight changes made to the intro and verse.

Intro
G|----------------------------------------------------------------------|
D|----------------------------------------------------------------------|
A|-16\4-4-444-----------------------------------------------------------|
E|-----------5-55-555-7-7-7540-00-0020-5-555555-55-555-7-777770-00-0020-|

G|----------------------------------|
D|----------------------------------|
A|------------------------7-77-7797-|
E|-5-555555-55-555-7-77777----------|

Verse I
G|-------------------------------------------------------------------1-----|
D|----------------------------------------------------------------214--42--|
A|-------------------------------------------------------2-222222----------| 
E|-5-555557-5-555045-7-777540-000-0020-5-555557-5-555045-------------------|

G|--------------------------------------------------------------------------|
D|--------------------------------------------------------------------------|
A|-------------------------------------------------------2-222222/7-7777777-|
E|-5-555557-5-555045-7-777540-000-0020-5-555557-5-555045--------------------|

G|--------------------------------------------------------------------|
D|--------------------------------------------------------------------|
A|---------------------------------------------------------7-77-7797--|
E|-5-555555-55-555-7-777770-00-0020-5-555555-55-555-7-77777-----------|

G|-------------------------------------------------------------------1-----|
D|----------------------------------------------------------------214--42--|
A|-------------------------------------------------------2-222222----------|
E|-5-555557-5-555045-7-777540-000-0020-5-555557-5-555045-------------------|

G|----------------------------------------------------------------|
D|----------------------------------------------------------------|
A|---------------------------------------------------------7-7-7--|
E|-5-5-555-5-5-555-7-7-777-0-0-000-5-5-555-5-5-555-7-7-777--7-7---|

Chorus
G|---------222-222-1-1-11--------------------444-444-------------1~-------|
D|------------------------2------------------------------1~--2~------4-2--|
A|-----------------------------------2-2-222---------4~-------------------|
E|-5-5-555------------------4-44-444--------------------------------------|

G|---------222-222-1-1-11--------------------444-444---------6-4-1----|
D|------------------------2--------------------------2-1-2-4-------2--|
A|-----------------------------------2-2-222--------------------------|
E|-5-5-555------------------4-44-444----------------------------------|

G|-------------------------------------------------------------1~------|
D|-----------------------------------------------------1~--2~------4-2-|
A|---------------------------------2-2-2222-22-222-4~------------------|
E|-5-5-5555-55-555-4-4-4444-44-444-------------------------------------|

G|---------------------------------------------------------6-4-1----S|
D|-------------------------------------------------2-1-2-4-------2--T|
A|---------------------------------2-2-2222-22-222------------------O|
E|-5-5-5555-55-555-4-4-4444-44-444----------------------------------P|

Post-Chorus (note: 12 = one then two, not twelve)
G|----------------------------------S|
D|------2-2-----2-24-42-2--2--------T|
A|---------------2--------2--22-2-2-O|
E|-0-00----0-00---------------------P|

G|--------------------------------|
D|------2-2-----2-24-42-2--2-1----|
A|---------------2--------2---2-2-|
E|-0-00----0-00-------------------|

Bridge
G|-----------------|
D|-----------------|
A|-4-4-----2-2-----| x 6
E|-----5-5-----2-2-|

G|-----------------|
D|-----------------|
A|-4-4-----222-----| 
E|-----5-5-----2-2-|

G|-----------------|
D|-----------------|
A|-4-4-----2-2-----| x 4
E|-----5-5-----2-2-|

G|---------------|
D|---------------|
A|-4-4-----2-2-2-| 
E|-----5-5-------|

Chorus (same as before)

Ending
G|----------------------------------------------|
D|----------------------------------------------|
A|----------2-22-222----------4-4-4-4-----------|
E|-5-55-555---------2-22-2222------4-5-55-555-7-|
comments
We did not receive enough feedback on this tab! Please rate:
print report bad tab
1 2 3 4 5
I want to post or [tab]
guest
You may want to rate the tab now too:
select rating
Please do not post tabs as comments. Select "correction" instead!