Oops, an error
Loading. Please wait.

A Candlit Dinner With Inamorta Tab

2,036 views 1 this week
1 commentread comment
1 2 3 4 5
2 more votes to show rating
add to favorites
launch autoscroll
font size
0
reset
how to read this tab
guitar tuner
Autoscroll
slow
fast
+/-
esc
set tempo
stop
Help us to improve Ultimate-Guitar.com Take our survey!
×
Author
Difficulty
Tuning
intermediate
D A D G B E
Yer it's not 100% and I'm not too sure about the chorus... but oh well
Tuning: Drop D

Intro - 0:00
e--------------------------------|
B--------------------------------|
G--------------------------------|
D--------------------------------| x4
A-000-000--000000-00-00-00-000---|
D-000-000--000000-00-00-00-000---|
pm... ...  ...... .. .. .. ...

1st Riff - 0:15
e----------------------------------|
B----------------------------------|
G----------------------------------|
D---------10-0-0-8-0-0-7-0---0-----|
A-5-7-8-5------------------8---7-8-|
D----------------------------------|

e----------------------------------|
B----------------------------------|
G----------------------------------|
D---------10-0-0-8-0-0-7-0-----10--|
A-5-7-8-5------------------7-8-----|
D----------------------------------|

e----------------------------------|
B----------------------------------|
G----------------------------------|
D---------10-0-0-8-0-0-7-0---0-----|
A-5-7-8-5------------------8---7-8-|
D----------------------------------|

e----------------------------------|
B----------------------------------|
G----------------------------------|
D---------10-0-0-8-0-0-7-0-----7---|
A-5-7-8-5------------------7-8-----|
D----------------------------------|

2nd Riff - x2
         - 0:25
e------------------------------------------------|
B------------------------------------------------|
G------------------------------------------------|
D---------------0---0~--------------10---7-------|
A-0000000000000-0-0-0~--0000000-7-8----7---10-8--|
D-0000000000000-0-0-0~--0000000------------------|
pm.............   .     .......

e--------------------------------------------|
B--------------------------------------------|
G--------------------1010-9-9--14-14--12-12--|
D-0--------------0---------------------------|
A-0-000000000000-0-0-8-8--7-7--12-12--10-10--|
D-0-000000000000-0-0-------------------------|
pm  ............   .

End of 2nd time
e-------------|
B-------------|
G-------------|
D-0~~~~~~~~~~-|
A-0~~~~~~~~~~-|
D-0~~~~~~~~~~-|

Breakdown 1/2 - 0:51
e-------------------------------------------|
B-------------------------------------------|
G-------------------------------------------|
D-------------------------------------------|
A-000-000--00-00---0-000000--000-000--00-00-|
D-000-000--00-00---0-000000--000-000--00-00-|
pm... ...  .. ..   . ......  ... ...  .. ..

e--------------|
B--------------|
G--------------|
D--------------|
A-8/7----------|
D-8/7-0-5p0-3~-|
pm    .

^^^^^^^^^Play this twice...

Breakdown 2/2 - 1:07
e--------------------------------------------|
B--------------------------------------------|
G--------------------------------------------|
D--------------------------------------------|
A-000-000--00-00---0-000000--000-000--00-00~-|
D-111-111--11-11---1-111111--111-111--11-11~-|
pm... ...  .. ..   . ......  ... ...  .. ..

^^Let the mutes like...ring out^^^^^^^^^^^^^^^^

e---------------------------------------------|
B---------------------------------------------|
G---------------------------------------------|
D---------------------------------------------|
A-000-000--00-00-000---000-000--00-00-----000-|
D-000-000--00-00-000---000-000--00-00-----000-|
pm... ...  .. .. ...   ... ...  .. ..     ...

Chorus (I Think) - x2
                 - 1:21
e--------------------------------------------------|
B--------------------------------------------------|
G-999999999999999-12121212121212121212121212121212-|
D--------------------------------------------------|
A-777777777777777-10101010101010101010101010101010-|
D--------------------------------------------------|

e---------------------------------------------------------------|
B---------------------------------------------------------------|
G-1616161717171616161616161616-14141412121212121214141412121212-|
D---------------------------------------------------------------|
A-1414141515151414141414141414-12121210101010101012121210101010-|
D---------------------------------------------------------------|

End of 2nd time
e-------------|
B-------------|
G-------------|
D-2~~~~~~~~~~-|
A-2~~~~~~~~~~-|
D-2~~~~~~~~~~-|

or

e-------------|
B-------------|
G-------------|
D-0~~~~~~~~~~-|
A-0~~~~~~~~~~-|
D-0~~~~~~~~~~-|

Not exactly sure which one, cant hear it properly lol.
_____________________________________________________________________________

Awesome Techno Part (Transposed to Guitar) - 1:50

Strings - Goes on till the last chorus...
        - Youd want this on clean guitar or it'll sound like shit...
e----------------------------------|
B-10~-----12~-----13~-----13~--12~-|
G-10~-----12~-----14~-----14~--12~-|
D----------------------------------|
A----------------------------------|
D----------------------------------|

e----------------------------------|
B-10~-----12~-----13~-----17~--20~-|
G-10~-----12~-----14~-----17~--21~-|
D----------------------------------|
A----------------------------------|
D----------------------------------|

Keyboard techno riff - Goes on till the last chorus...
                     - Play after the strings been played twice...
e--------------------------------------|
B--------------------------------------|
G-10-14-10-14-10-14--12-16-12-16-12-16-|
D--------------------------------------|
A--------------------------------------|
D--------------------------------------|

e--------------------------------------|
B--------------------------------------|
G-14-17-14-17-14-17--14-17-14-12-16-12-|
D--------------------------------------|
A--------------------------------------|
D--------------------------------------|

Awesome Techno Breakdown - 2:45

CBFd doing the strumming...but its mainly...
e--------------------------------------|
B--------------------------------------|
G--------------------------------------|
D--------------------------------------|
A-00-00-000-00-000~---0-00-00----------|
D-00-00-000-00-000~---0-00-00----------|
PM.. .. ... .. ...    . .. ..

Then the Final Chorus - x2
                      - 3:31
e--------------------------------------------------|
B--------------------------------------------------|
G-999999999999999-12121212121212121212121212121212-|
D--------------------------------------------------|
A-777777777777777-10101010101010101010101010101010-|
D--------------------------------------------------|

e---------------------------------------------------------------|
B---------------------------------------------------------------|
G-1616161717171616161616161616-14141412121212121214141412121212-|
D---------------------------------------------------------------|
A-1414141515151414141414141414-12121210101010101012121210101010-|
D---------------------------------------------------------------|
_____________________________________________________________________________
Yer, as I said, not 100%....
Asking Alexandria is friken awesome!
Suggest correction
Give kudos to tab author, rate the tab!
1 2 3 4 5
comments
print report bad tab
1 comment total.
0 reply
smorl7 303 Feb 25, 2010 11:35 PM

It's pretty good just looking at it but both breakdowns are wrong with the strumming. I'm pretty sure the 000 are just 00.

guest
You may want to rate the tab now too:
select rating
Wanna post a correction for this tab? Suggest correction