Oops, an error
Loading. Please wait.

A Lesson Never Learned Tab

version 1
version 1

Whole song

Interactive

23,860 views 21 this week
4 commentsread comments
1 2 3 4 5
accurate
x 10
add to favorites
launch autoscroll
font size
0
reset
how to read this tab
guitar tuner
Tab Pro tools
  • play this tab
  • loop segment
  • change instrument
  • show fretboard
  • metronome
×
Best way to learn
"A Lesson Never Learned"
Autoscroll
slow
fast
+/-
esc
set tempo
stop
Contributor
Asking Alexandria
"A Lesson Never Learned"
Reckless And Relentless (2011)

I believe my work to be mostly accurate with possibility of few mistakes.
You be the judge. Any corrections would be appreciated.
Plan on tabbing some more new stuff soon! enjoy

I have a cover up: http://www.facebook.com/home.php#!/video/video.php?v=181317341916614

Tuning: Drop C (c g c f a d)

. palm mute
x mute note
~ let note ring
p pull off
b bend note



(0:00-0:14)
------------------------------------|  (x4)
------------------------------------|
------------------------------------|
------------------------------------|
-000-00000000-000-0-00000000-00-0-0-|
-000-00000000-000-0-00000000-00-0-0-|
 ... ........ ... . ........ .. . .

------------------------------------------------------------

(0:14-0:26)
---------------------------| (x4)
---------------------------|
---------------------------|
---------------------------|
-000-0000-00-0-00--00-0-00-|
-000-0000-00-0-00--00-0-00-|
 ... .... .. . ..  .. . ..

Guitar 1           Guitar 2
(strum)
------------------|---------------|
------------------|---------------|
-7-10-5---7-10-12-|-10-12-14-9-10-|
-x--x-x---x--x--x-|--x--x--x-x--x-|
-5--8-3---5--8-10-|--8-10-12-7--8-|
------------------|---------------|

------------------------------------------------------------

(0:26-0:40)
Guitar 1
----------------------------------------------------| (x2)
----------------------------------------------------|
----------------------------------------------------|
----------------------------------------------------|
----------------------------------------------------|
-000-0-0-0-0-0-00000-00000--000-0-0-0-0-0-8888-3333-|
 ...   .   .   ..... .....  ...   .   .

Guitar 2
(strum)
----------------------|
----------------------|
-7-9-12--10-12-14--14-|
-x-x--x---x--x--x---x-|
-5-7-10---8-10-12--12-|
----------------------|

------------------------------------------------------------
(0:40-0:52)
(bend and release the 1's fast)
-------------------------------------------------------| (x2)
-------------------------------------------------------|
-------------------------------------------------------|
-------------------------------------------------------|
-000~-0~-0~-0~--00000~-00000~--000~-0~-0~-0~-----------|
-000~-0~-0~-0~--00000~-00000~--000~-0~-0~-0~--11111111-|
 ...  .  .  .   .....  .....   ...  .  .  .

------------------------------------------------------------
(0:52-1:05)
Guitar 1                                      (play first time)
---------------------------------------------|-----------------| (x2)
---------------------------------------------|-----------------|
---------------------------------------------|-----------------|
---------------------------------------------|-----------------|
-000~-0~-0~-0~--00000~-00000~--000~-0~-0~-0~-|-5p0-8p0-5p0-8p0-|
-111~-1~-1~-1~--11111~-11111~--111~-1~-1~-1~-|-----------------|
 ...  .  .  .   .....  .....   ...

Guitar 2
(strum)
-(x2)--|-----------------|
-------|-5--5x-5x-5x-5~--|
-7--6--|-x---------------|
-x--x--|-2---------------|
-5--4--|-----------------|
-------|-----------------|

------------------------------------------------------------
(1:05-1:29)
-------------------------------------------------------|
-------------------------------------------------------|
-------------------------------------------------9-9-9-|
-------------------------------------------------x-x-x-|
-00-00-0000-00--000--00000--00-00-0000-00--------7-7-7-|
-00-00-0000-00--000--00000--00-00-0000-00--8-7-0-------|
 .. .. .... ..  ...  .....  .. .. .... ..

----------------------------------------------------------|
----------------------------------------------------------|
----------------------------------------------------------|
----------------------------------------------------------|
-00-00-0000-00--000----------00-00-0000-00-------7b-7b-7b-|
-00-00-0000-00--000--000000--00-00-0000-00-8-7-0----------|
 .. .. .... ..  ...          .. .. .... ..

----------------------------------------------------------------|
----------------------------------------------------------------|
----------------------------------------------------------9-9-9-|
----------------------------------------------------------x-x-x-|
-00~-00~-0000~-00~--000~--00000~--00~-00~-0000~-00~-------7-7-7-|
-00~-00~-0000~-00~--000~--00000~--00~-00~-0000~-00~-8-7-0-------|
 ..  ..  ....  ..   ...   .....   ..  ..  ....  ..

-------------------------------------------------------|
-------------------------------------------------------|
-------------------------------------------------9-9-9-|
-------------------------------------------------x-x-x-|
-00-00-0000-00--000--00000--00-00-0000-00--------7-7-7-|
-00-00-0000-00--000--00000--00-00-0000-00--8-7-0-------|
 .. .. .... ..  ...  .....  .. .. .... ..

------------------------------------------------------------
(1:29-1:56)
(couldn't really make out a second guitar here)
(strum)
---------- (x4)  ----------|
----------       ----------|
----7-----       ----------|
-0--7--5--       ----------|
-0--5--5--       -0~-0~-0~-|
-0-----5--       -1~-1~-1~-|
                  .  .  .

-------------------------------------------------------------
(1:56-2:44)
--------------------------------------------------|
--------------------------------------------------|
--------------------------------------------------|
--------------------------------------------------|
-0--0-0000--00-0--00-0-0000--0-0000--00-0---------|
-0--0-0000--00-0--00-0-0000--0-0000--00-0--00001b-|
 .  . ....  .. .  .. . ....  . ....  .. .

                        (1st end)  (2nd end)
-----------------------|----------|---------| (x2)
-----------------------|----------|---------|
-----------------------|----------|---------|
-----------------------|----------|---------|
-0-0--00-0-00--0-00-00-|-000-0-00-|---------|
-0-0--00-0-00--0-00-00-|-000-0-00-|-0000-1b-|
 . .  .. . ..  . .. ..   ... . ..   ....

-------------------------------------------------------|
-------------------------------------------------------|
-------------------------------------------------------|
-------------------------------------------------------|
-0~--0~-0000~--00~-0~--00~-0~--0000~--0~--0~--0~-0~-0~-|
-0~--0~-0000~--00~-0~--00~-0~--0000~--0~--0~--1~-1~-1~-|
 .   .  ....   ..  .   ..  .   ....   .   .   .  .  .

------------------------------|
------------------------------|
------------------------------|
------------------------------|
-0-0-0--000-000--00000--------|
-0-0-0--000-000--00000--0x-0x-|
 . . .  ... ...  .....

Guitar 1
-------------------------------------------|
-------------------------------------------|
-------------------------------------------|
------------6-3----------------------------|
-0-0-0---------------000-000--00000--------|
-0-0-0-4b-0-----6-0--000-000--00000--0x-0x-|
 . . .    .          ... ...  .....

Guitar 2
-------------------------------------------|
-------------------------------------------|
-------------------------------------------|
------------3-0----------------------------|
-0-0-0---------------000-000--00000--------|
-0-0-0-1b-0-----3-0--000-000--00000--0x-0x-|
 . . .    .          ... ...  .....

(1st time let notes ring)
------------------------------| (x2)
------------------------------|
------------------------------|
------------------------------|
-0-0-0--000-000--00000--------|
-0-0-0--000-000--00000--0x-0x-|
 . . .  ... ...  .....
------------------------------------------------------------
(2:44-3:13)
------------------------------------------------------------
(3:13-3:40)
(strum)
---------- (x4)  -------------------|
----------       -------------------|
----7-----       -------------------|
-0--7--5--       -------------------|
-0--5--5--       -0~-0~-0~-0~-0~-0~-|
-0-----5--       -0~-0~-0~-1~-1~-1~-|
                  .  .  .  .  .  .

------------------------------------------------------------
(3:40-3:54)
                                             (1st end)(2nd end)
---------------------------------------------|-------|--------| (x2)
---------------------------------------------|-------|--------|
---------------------------------------------|-------|--------|
---------------------------------------------|-------|--------|
-0~-000~-000~-000~--0~-00000~-000~-000~-000~-|-00000-|--------|
-1~-111~-111~-111~--1~-11111~-111~-111~-111~-|-00000-|-000000-|
 .  ...  ...  ...   .  .....  ...  ...  ...    .....

-------------------------------------------------------------

The end.
comments
print report bad tab
4 comments total. Showing first comments.
+2 reply
Kingman725 wrote on June 23 2011, 02:23 pm

actually i find that 1:29-1:56 is


---------
---------
----4----
-0--4--5-
-0--2--5-
-0-----5-

+1 reply
odie134 wrote on August 31 2011, 12:52 pm

this sounds more like it

----------------------------------------|
----------------------------------------|
----------------------------------------|
----------3-----------------------------|
-0-0-0-----4-3----000-000--00000--------|
-0-0-0-1b------4--000-000--00000--0x-0x-|

0 reply
EdwardMasters wrote on October 16 2015, 12:01 pm, edited at 12:02 pm

idk

I want to post or [tab]
guest
You may want to rate the tab now too:
select rating
Please do not post tabs as comments. Select "correction" instead!