Oops, an error
Loading. Please wait.

A Prophecy Bass Tab

version 1
version 1

Whole song

Interactive

26,479 views 15 this week
2 commentsread comments
1 2 3 4 5
worth learning
x 5
add to favorites
launch autoscroll
font size
0
reset
guitar tuner
Tab Pro tools
  • play this tab
  • loop segment
  • change instrument
  • show fretboard
  • metronome
×
Best way to learn
"A Prophecy"
Autoscroll
slow
fast
+/-
esc
set tempo
stop
Contributor
Difficulty
Tuning
novice
D A D G B E
Tuning: Drop D


Intro

G|-------------------------------------------------------------------------|
D|-------------------------------------------------------------------------|
A|--------5h7777-5-8------8h10101010-8-------------------------------------|
D|-0~----------------0~----------------------------------------------------|


Verse

G|-----------------------------------------------------------------|
D|-----------------------------------------------------------------|
A|-----------------------------------------------------------------|
D|-0-00-000-000-000-12-1212-121212-10-1010-101010-8-88-888-888-888-|

G|-----------------------------|
D|-----------------------------| 
A|-----------------------------|
D|-3-33-333-2-22-222-----------|

Play verse again


Breakdown 1

G|------------------------------------------------------------|
D|------------------------------------------------------------|
A|--------------------------5p0-7h0-10-8-7--------------------|
D|-0-00-00-0-00-0000-00-00-0----------------------------------|

G|------------------------------------------------------------|
D|------------------------------------------------------------|
A|------------------------------------------------------------|
D|-0-00-00-0-00-0000-00-00-00---------------------------------|

G|------------------------------------------------------------|
D|------------------------------------------------------------|
A|--------------------------5p0-7h0-10-8-7--------------------|
D|-0-00-00-0-00-0000-00-00-0----------------------------------|

G|------------------------------------------------------------|
D|------------------------------------------------------------|
A|------------------------------------------------------------|
D|-0-00-00-0-00-0000-00-00-0------0---1-1-1-1-1-1--0-0--------|


Breakdown 2

G|----------------------------------------------------|
D|----------------------------------------------------|
A|----------------------------------------------------|
D|-0-0--00-00-0-0-----0-0~--00-00-0-0~----------------|

G|----------------------------------------------------|
D|----------------------------------------------------|
A|----------------------------------------------------|
D|-0-0--00-00-0-0-----0-0~--00-00-0-0~--1-1-1-1-1-1---|


Chorus

G|----------------------------------------------|
D|----------------------------------------------|
A|----------------------------------------------|
D|-0(x16)-12(x8)-10(x8)-8(x16)-3(x8)-2(x8)------|

Play Chorus again


Techno Break

G|-------------|
D|-------------|
A|-------------|
D|-0~----------|


Breakdown 3

G|----------------------------------------------|
D|----------------------------------------------|
A|----------------------------------------------|
D|-0-0-0-0-0-0--00-00--0-0-0-0-0-0--0000-00-----|

G|----------------------------------------------|
D|----------------------------------------------|
A|----------------------------------------------|
D|-0-0-0-0-0-0--00-00--0-0-0-0-0-0--0000-00-----|

G|----------------------------------------------------------|
D|----------------------------------------------------------|
A|----------------------------------------------------------|
D|-0~-0~-0~-0~-0~-0~--00-00--0~-0~-0~-0~-0~-0~--0000-00-----|

G|----------------------------------------------------------|
D|----------------------------------------------------------|
A|----------------------------------------------------------|
D|-0---0-0-0-0--00-00--0-0-0-0-0-0--0000-00-0---------------|


Breakdown 4

G|----------------------------------------------|
D|----------------------------------------------|
A|----------------------------------------------|
D|-1-1~--1-1~-1-1-1-1-1~-1-1~--111-111----------|

G|----------------------------------------------|
D|----------------------------------------------|
A|----------------------------------------------|
D|-1~--1-1~-1-1-1-1-1~-1-1~--111-110------------|

G|----------------------------------------------|
D|----------------------------------------------|
A|----------------------------------------------|
D|-0--0-0--0-0-0-0-0--0-0--000-000--------------|

G|----------------------------------------------|
D|----------------------------------------------|
A|----------------------------------------------|
D|-0~--0-0~-0-0-0-0-0~-0-0~--000-000-0----------|
comments
print report bad tab
2 comments total.
-1 reply
Joel8a wrote on February 7 2011, 02:23 am

here my cover (:

http://www.youtube.com/watch?v=dMBW4wgU26c

0 reply
leeisonfire wrote on May 23 2011, 06:50 pm

hey there, sorry but this tab is a bit wrong, ive played this song with my eyes closed and its perfect ( check my tab), but this tab is all out.. have a look

cheers

I want to post or [tab]
guest
You may want to rate the tab now too:
select rating
Please do not post tabs as comments. Select "correction" instead!