Oops, an error
Loading. Please wait.

A Prophecy Bass Tab

version 2
version 2

Whole song

Interactive

10,301 views 9 this week
no commentswrite comment
1 2 3 4 5
accurate
x 7
add to favorites
launch autoscroll
font size
0
reset
guitar tuner
Tab Pro tools
  • play this tab
  • loop segment
  • change instrument
  • show fretboard
  • metronome
×
Best way to learn
"A Prophecy"
Autoscroll
slow
fast
+/-
esc
set tempo
stop
Contributor
Difficulty
Tuning
novice
D A D G B E
Hey there, I have seen this bass tab only a few days ago, I learnt how to do the REAL 
bass tab by ear and from the guitar tabs. To be fair it is a pretty easy tab to hear. 
There are not many notes and its just the same as the’ guitar tab, but just using 
the root notes and octaves! Simples!

Intro

G|-------------------------------------------------------------------------|
D|-------------------------------------------------------------------------|
A|--------5h7777-5-8------5h7777-------------------------------------------|
D|-0~----------------0~----------------------------------------------------|


Verse

G|-----------------------------------------------------------------|
D|-----------------------------------------------------------------|
A|-----------------------------------------------------------------|
D|-333333333333333332222222333333333333337777777555888-------------|  X1

G|-----------------------------------------------------------------|
D|-----------------------------------------------------------------|
A|-----------------------------------------------------------------|
D|-333333333333333332222222333333333333337777777000222-------------|

The verse notes are accurate, but just listen for the timing. I only had a few minutes 
to do this, that’s why it isn’t fully accurate.
Breakdown 1

G|------------------------------------------------------------|
D|------------------------------------------------------------|
A|--------------------------5p0-7p0-10-8-7--------------------|
D|-0-00-00-0-00-0000-00-00-0----------------------------------|

G|------------------------------------------------------------|
D|------------------------------------------------------------|
A|------------------------------------------------------------|
D|-0-00-00-0-00-0000-00-00-00---------------------------------|

G|------------------------------------------------------------|
D|------------------------------------------------------------|
A|----------------------------5p0-7h0-10-8-7-DEAD STOP!-------|
D|-0~-00-00-0-00-0000-00-00-0---------------------------------|     X2

G|------------------------------------------------------------|
D|------------------------------------------------------------|
A|------------------------------------------------------------|
D|---DRUM FILL---1-1-1-1-1-1-0-0------------------------------|


Breakdown 2

A fun thing to do is to play this part below (in brackets) in the guitar fill, but its 
not normally played.

(G|----------------------------------------------------|)
(D|--------------------------------------5b------------|)
(A|-------------------8p010p08p07p08p05p0--------------|)
(D|-0-0--00-00-0-0-------------------------------------|)


G|----------------------------------------------------|
D|----------------------------------------------------|
A|----------------------------------------------------|
D|-0-0--00-00-0-0-----0-0~--00-00-0-0~--1-1-1-1-1-1---|


Chorus

G|----------------------------------------------|
D|----------------------------------------------|
A|--------3(x8)-1(x16)--------------------------|
D|-0(x29)-------------3(x8)-2(x8)---------------|      X2

Second chorus part just leave on open D.

D|-0~-------------------------------------------|
Breakdown 3

G|----------------------------------------------|
D|----------------------------------------------|
A|----------------------------------------------|
D|-0-0-0-0-0-0--00-00--0-0-0-0-0-0--0000-00-----|

G|----------------------------------------------|
D|----------------------------------------------|
A|----------------------------------------------|
D|-0-0-0-0-0-0--00-00--0-0-0-0-0-0--0000-00-----|

G|----------------------------------------------------------|
D|----------------------------------------------------------|
A|----------------------------------------------------------|
D|-0~-0~-0~-0~-0~-0~--00-00--0~-0~-0~-0~-0~-0~--0000-00-----|

G|----------------------------------------------------------|
D|----------------------------------------------------------|
A|----------------------------------------------------------|
D|-0---0-0-0-0--00-00--0-0-0-0-0-0--0000-00-0---------------|


Breakdown 4

G|----------------------------------------------|
D|----------------------------------------------|
A|----------------------------------------------|
D|-1-1~--1-1~-1-1-1-1-1~-1-1~--111-111----------|

G|----------------------------------------------|
D|----------------------------------------------|
A|----------------------------------------------|
D|-1~--1-1~-1-1-1-1-1~-1-1~--111-110------------|

G|----------------------------------------------|
D|----------------------------------------------|
A|----------------------------------------------|
D|-0--0-0--0-0-0-0-0--0-0--000-000--------------|

G|----------------------------------------------|
D|----------------------------------------------|
A|----------------------------------------------|
D|-0~--0-0~-0-0-0-0-0~-0-0~--000-000-0----------|


So that’s basically it, simple easy song to play. The notes are accurate, timings a bit 
off but I only had 5 minutes to it in.

peace
comments
print report bad tab
I want to post or [tab]
guest
You may want to rate the tab now too:
select rating
Please do not post tabs as comments. Select "correction" instead!