Oops, an error
Loading. Please wait.

A Prophecy Tab

version 2
version 2

Whole song

Interactive

10,293 views 12 this week
no commentswrite comment
1 2 3 4 5
worth learning
x 5
add to favorites
launch autoscroll
font size
0
reset
how to read this tab
guitar tuner
Tab Pro tools
  • play this tab
  • loop segment
  • change instrument
  • show fretboard
  • metronome
×
Best way to learn
"A Prophecy"
Autoscroll
slow
fast
+/-
esc
set tempo
stop
Difficulty
Tuning
novice
D A D G B E
-------------------------------------------------------------------------------
                             A Prophecy - Asking Alexandria
-------------------------------------------------------------------------------
Tabbed by: Anthony Spalla
Email: moneybagz1202@aim.com

Tuning: Drop D
my tab key:
/=slide up
\=slide down
v=harmonic
b=bend
B=bounce bend

Intro1
|------------------------------------|
|------------------------------------|
|------------------------------------|
|------------------------3/5-5-5-5\3-|
|--0-5/7-7-7-7\5-5/8--0--------------|
|--0------------------0--------------|
Intro2
|----------------------------------------------------------------------------------|
|----------------------------------------------------------------------------------|
|----------------------------------------------------------------------------------|
|--3-3--3-3-3-3-3-3-3-3-3-3-3-3-3-3--3-3-3-3-3-3\2--2-2-2-2-2-2/3--3-3-3-3-3-3-----|
|----------------------------------------------------------------------------------|
|----------------------------------------------------------------------------------|

|--------------------------------------------------|
|--------------------------------------------------|
|-----------------2--2-2-2-2-2-2-0-0-0-0-3-3-3-3---|
|--3-3-3-3-3-3-3-----------------------------------|
|--------------------------------------------------|
|--------------------------------------------------|
Verse1(guitar 1)1x with singles 1x without
|-----------------------------------------------------|
|-----------------------------------------------------|
|-----------------------------------------------5-----|
|-----------------------------------------5--7----8-7-|
|--0--000--000-0--000--0000000--000-000---------------|
|--0--000--000-0--000--0000000--000-000-0--0--0-------|
Verse1(guitar 2)2x
|-----------------------------------------------------|
|-----------------------------------------------------|
|----------------------------------------5--7--8-7-5--|
|-----------------------------------------------------|
|--0--000--000-0--000--0000000--000-000---------------|
|--0--000--000-0--000--0000000--000-000-0--0--0-------|
Breakdown
|----|---------------------------------------------------------------------------|
|----|---------------------------------------------------------------------------|
|----|---------------------------------------------------------------------------|
|----|---------------------------------------------------------------------------|
|--0-|--1-1-1-1-1-1--------------------------------------------------------------|
|--0-|--0-0-0-0-0-0-0-0----------------------------------------------------------| FUCK

|--------------------------------------------------------------------------------|
|--------------------------------------------------------------------------------|
|--------------------------------------------------------------------------------|
|--------------------0-8-0-7-0-5-0-7-0-5-0-3-------------------------------------|
|--------------------------------------------3b4---------------------------------|
|-0-0---00-00-0-0----------------------------------0-0--00-00-0-0--3B4-----------|

|--------------------------------------------------------------------------------|
|--------------------------------------------------------------------------------|
|--------------------------------------------------------------------------------|
|--------------------0-8-0-7-0-5-0-7-0-5-0-3-------------------------------------|
|--------------------------------------------3b4---------------------1-1-1-1-1-1-|
|-0-0---00-00-0-0----------------------------------0-0--00-00-0-0--0-0-0-0-0-0-0-|
Chorus
|-----------------------------------------------------------------------------------------------|
|-----------------------------------------------------------------------------------------------|
|-----------------------------------------------------------------------------------------------|
|--7777777777777777777777777-12121212121212-10101010101010101010101010101010--5555555544444444--|
|--5555555555555555555555555-12121212121212-10101010101010101010101010101010--3333333322222222--|
|--0000000000000000000000000-10101010101010-8-8-8-8-8-8-8-8-8-8-8-8-8-8-8-8---3333333322222222--|
Break (palm muted, play this part til the synth slide comes)
|----|----------------------------------------------|
|----|----------------------------------------------|
|----|----------------------------------------------|
|----|----------------------------------------------|
|--0-|----------------------------------------------|
|--0-|--0-0-0-0-0-0--00-00--0-0-0-0-0-0-0000-00-----|
Outro ON YOUR OWN (palm muted, repeat once)
|------------------------------------|
|------------------------------------|
|------------------------------------|
|------------------------------------|
|--1-1---1-1--1-1-1-1-1---1-1-111-11-|
|--0-0---0-0--0-0-0-0-0---0-0-000-00-|
(palm muted, play til end)
|------------------------------------|
|------------------------------------|
|------------------------------------|
|------------------------------------|
|--0-0---0-0--0-0-0-0-0---0-0-000-00-|
|--0-0---0-0--0-0-0-0-0---0-0-000-00-|
comments
print report bad tab
I want to post or [tab]
guest
You may want to rate the tab now too:
select rating
Please do not post tabs as comments. Select "correction" instead!