Oops, an error
Loading. Please wait.

A Prophecy Bass Tab

version 3
version 3

Whole song

Interactive

1,243 views 1 this week
no commentswrite comment
1 2 3 4 5
please rate
add to favorites
launch autoscroll
font size
0
reset
guitar tuner
Tab Pro tools
  • play this tab
  • loop segment
  • change instrument
  • show fretboard
  • metronome
×
Best way to learn
"A Prophecy"
Autoscroll
slow
fast
+/-
esc
set tempo
stop
Difficulty
Tuning
novice
D A D G B E
A Prophecy by Asking Alexandria

Drop D
                                 
g|---------------------------------|
d|---------------------------------|
a|---------------------------------|
D|-0~------------------------------|

g|-----------------|
d|-----------------|
a|-5-7-7-7-7-5-----|
D|---------------8~|

g|---------------------------------|
d|---------------------------------|
a|---------------------------------|
D|-0~------------------------------|

g|-----------------|
d|-----------------|
a|-5-7-7-7-7-5-----|
D|---------------0-|
                                   [x2]
g|------------------------------------|
d|------------------------------------|
a|------------------------------------|  
D|-0(x23)-10(x8)-8(x16)-3(x8)-2(x8)-0-|

g|--------------------------|
d|--------------------------|
a|--------------------------|
D|-000--000--0-000--0000000-|

g|------------------------------|
d|------------------------------|
a|-------------5-0-7-0-10-8-7---|
D|-000--000--0----------------0-|

g|--------------------------|
d|--------------------------|
a|--------------------------|
D|-000--000--0-000--0000000-|

g|--------------------------|
d|--------------------------|
a|--------------------------|
D|-000--000--000----------0-|

g|--------------------------|
d|--------------------------|
a|--------------------------|
D|-000--000--0-000--0000000-|

g|------------------------------|
d|------------------------------|
a|-------------5-0-7-0-10-8-7---|
D|-000--000--0----------------0-|

g|--------------------------|
d|--------------------------|
a|--------------------------|
D|-000--000--0-000--0000000-|

g|------------------------------|
d|------------------------------|
a|-------------5-0-7-0-10-8-7---|
D|-000--000--0----------------0-|


g|------------------------|
d|------------------------|
a|------------------------|
D|-1--1--1-1--1--1--0--00-|

g|------------------|
d|------------------|
a|------------------|
D|-0------00-00-0-0-|

g|-------------------|
d|-------------------|
a|-------------------|
D|-0-0~---00-00-0-0~-|

g|-------------------|
d|-------------------|
a|-------------------|
D|-0-0----00-00-0-0--|

g|------------------------------------|
d|------------------------------------|
a|------------------------------------|
D|-0-0~---00-00-0-0~--1--1--1-1--1--1-|
                                 
g|----------------------------------|
d|----------------------------------|
a|----------------------------------|
D|-0(x24)-10(x8)-8(x16)-3(x8)-2(x8)-|[2x]

g|---------------------------------|
d|---------------------------------|
a|---------------------------------|
D|-0~------------------------------|

Break [1:47-2:38]

g|--------------------------|
d|--------------------------|
a|--------------------------|
D|-0--0--0--0--0--0---00-00-|

g|---------------------------|
d|---------------------------|
a|---------------------------|
D|-0--0--0--0--0--0--0000-00-|

g|--------------------------|
d|--------------------------|
a|--------------------------|
D|-0~-0~-0~-0~-0~-0~--00-00-|

g|---------------------------|
d|---------------------------|
a|---------------------------|
D|-0~-0~-0~-0~-0~-0~-0000-00-|

g|--------------------------|
d|--------------------------|
a|--------------------------|
D|-0-----0--0--0--0---00-00-|

g|---------------------------|
d|---------------------------|
a|---------------------------|
D|-0--0--0--0--0--0--0000-00-|

         ON YOUR...
g|---------------------------|
d|---------------------------|
a|---------------------------|
D|-0-------------------------|

  OWN!!!
g|-------------------------|
d|-------------------------|
a|-------------------------|
D|-1~--------1-1---1-1-1-1-|

g|-------------------------|
d|-------------------------|
a|-------------------------|
D|-1~-------1-1~--111-11-1-|

g|-------------------------|
d|-------------------------|
a|-------------------------|
D|-1~--------1-1~--1-1-1-1-|

g|-------------------------|
d|-------------------------|
a|-------------------------|
D|-1~-------1-1~--111-11-1-|

Last part is just opens.
comments
We did not receive enough feedback on this tab! Please rate:
print report bad tab
1 2 3 4 5
I want to post or [tab]
guest
You may want to rate the tab now too:
select rating
Please do not post tabs as comments. Select "correction" instead!