Oops, an error
Loading. Please wait.

A Prophecy tab

version 3
version 3

Whole song

Interactive

35,624 views 12 this week
4 commentsread comments
1 2 3 4 5
x 7
add to favorites
×
Save as Personal and add changes to this tab that will be seen only by you. Learn more ›
×
You can save this tab as Personal to edit and correct it or add notes. All changes will be seen only by you. Learn more »
launch autoscroll
font size
0
reset
how to read this tab
guitar tuner
backing track
0:00
0:00
edit
Autoscroll
slow
fast
+/-
esc
set tempo
stop
This is an amazing song by asking alexandria.
about 86% of the credits goes to smorl7 i belive?
his tab was amazing but it had couple mistakes so i fixed them
really quick.

A Prophecy
Asking Alexandria

here's how the tab should sound like:
http://www.youtube.com/watch?v=nGhqHtjOjF4

Tuning: Drop D

[Intro]

 Guitar 1
e|-----------------------------------|
B|-----------------------------------|
G|-------7/9--9-9-9-7-7/10-10\-------|
D|--0~---x-x--x-x-x-x-x-x--x----0~---|
A|--0~---5/7--7-7-7-5-5/8--8\---0~---|
E|--0~--------------------------0~---|

e|----------------|
B|----------------|
G|----7/9--9-9--7-|
D|----x-x--x-x--x-|
A|----5/7--7-7--5-|
E|----------------|


 Guitar 2
e|-----------------------------------|
B|-----------------------------------|
G|-------7/9--9-9-9-7-7/10-10\-------|
D|--0~---x-x--x-x-x-x-x-x--x----0~---|
A|--0~---5/7--7-7-7-5-5/8--8\---0~---|
E|--0~--------------------------0~---|

e|------------------------|
B|------------------------|
G|----10/12--12-12--10----|
D|----x--x---x--x---x-----|
A|----8-/10--10-10--8-----|
E|------------------------|


[Verse]
strumming (try using rhythm it helps a little too much here)

 Guitar 1
e|--------------------------------------------------|
B|--------------------------------------------------|
G|--10-------9-----10------14-----12-----15---------|
D|--x--x11---x-x6--x--x11--x--x4--x--x2--x--x2------|
A|--8--------7-----8-------12-----10-----13---------|
E|--------------------------------------------------|


e|-------------------------------------------------|
B|-------------------------------------------------|
G|--10------9------10------14-----5------9---------|
D|--x--x11--x--x6--x--x11--x--x4--x--x2--x--x2-----|
A|--8-------7------8-------12-----3------7---------|
E|-------------------------------------------------|



Guitar 2(slight slower at the last two chords)
e|-----------------------------------------------|    
B|-----------------------------------------------|  
G|-----------------------------------------------|  
D|--0--------10-------8----------3---------------|   
A|--0-x11----10--x6---8--x11-----3--x6----3--x6--|
E|--0--------10-------8----------3--------2------|(x2)  

 Both Guitars 
e|---------------------------------------------------|
B|---------------------------------------------------|
G|---------------------------------------------------|
D|---------------------------------------------------|
A|-0000-000-0-000-000000-000-000----5p0-7p0-10-8-7---|
E|-0000-000-0-000-000000-000-000-0-------------------|
   .... ... . ... ...... ... ... .

e|---------------------------------------|
B|---------------------------------------|
G|---------------------------------------|
D|---------------------------------------|
A|--0-000-000-0-000-000000-000-000-000---|
E|--0-000-000-0-000-000000-000-000-000---|
      ... ... . ... ...... ... ... ...

 Guitar 1
e|----------------------------------------------------|
B|----------------------------------------------------|
G|----------------------------------------------------|
D|----------------------------------------------------|
A|-0000-000-0-000-000000-000-000----5p0-7p0-10-8-7--0-|
E|-0000-000-0-000-000000-000-000-0------------------0-|
   .... ... . ... ...... ... ... .

 Guitar 2
e|--------------------------------------------------------|
B|--------------------------------------------------------|
G|--------------------------------------------------------|
D|--------------------------------------------------------|
A|----000-000-0-000-000000-000-000----8p0-10p0-13-12-10-0-|
E|----000-000-0-000-000000-000-000-0--------------------0-|
      ... ... . ... ...... ... ... .

 Guitar 1
e|-------------------------------------------------------|
B|-------------------------------------------------------|
G|-------------------------------------------------------|
D|-------------------------------------------------------|
A|--0-000-000-0-000-000000-000-000----5p0-7p0-10-8-7--0--|
E|--0-000-000-0-000-000000-000-000-0------------------0--|
      ... ... . ... ...... ... ... .                  .

 Guitar 2
e|------------------------------------------------------|
B|------------------------------------------------------|
G|------------------------------------------------------|
D|------------------------------------------------------|
A|----000-000-0-000-000000-000-000----8p0-10p0-13-12-10-|
E|----000-000-0-000-000000-000-000-0--------------------|
      ... ... . ... ...... ... ... .

sick breakdown yo.

 Guitar 1                                       
e|-------------------------------------------------------------------------|
B|-------------------------------------------------------------------------|
G|-------------------------------------------------------------------------|
D|-------------------------------------------------------------------------|
A|--0-0-0-0-0-0-00---------00---00-00-00---7p0-8p0-7p0-5p0-7p0-5p0-5*------|
E|--1-1-1-1-1-1-00---------00---00-00-00-----------------------------------|
    . . . . . . ..         ..   .. .. ..

 Guitar 2                                     
e|-------------------------------------------------------------------------|
B|-------------------------------------------------------------------------|
G|-------------------------------------------------------------------------|
D|-------------------------------------------------------------------------|
A|--0-0-0-0-0-0-00---------00---00-00-00---10p0-12p0-10p0-8p0-10p0-8p0-8*--|
E|--1-1-1-1-1-1-00---------00---00-00-00-----------------------------------|
    . . . . . . ..         ..   .. .. ..

 Guitar 1
e|-------------------------------------------------------------------------|
B|-------------------------------------------------------------------------|
G|-------------------------------------------------------------------------|
D|-------------------5*b---------------------------------------------------|
A|--00~---00~00~00~-------00---00-00-00---7p0-8p0-7p0-5p0-7p0-5p0-5*-------|
E|--00~---00~00~00~-------00---00-00-00------------------------------------|
    ..    .. .. ..        ..   .. .. ..

Guitar 2                                     
e|--------------------------------------------------------------------------|
B|--------------------------------------------------------------------------|
G|--------------------------------------------------------------------------|
D|--------------------------------------------------------------------------|
A|--00-----00~00~00~---------00---00-00-00---10p0-12p0-10p0-8p0-10p0-8p0-8*-|
E|--00-----00~00~00~---------00---00-00-00----------------------------------|
    ..     .. .. ..          ..   .. .. ..

e|----------------------------------|
B|----------------------------------|
G|----------------------------------|
D|----------------------------------|
A|--00~---00~00~00~---0-0-0-0-0-0---|
E|--00~---00~00~00~---1-1-1-1-1-1---|
    ..    .. .. ..    . . . . . .


[Chorus]
(strum with good rhythm)


Guitar 1
e|----------------------------------------|
B|----------------------------------------|
G|----7-------9------10------12-----10----|
D|----x-x24---x-x8---x--x16--x--x8--x-x8--|
A|----5-------7------8-------10-----8-----|
E|----------------------------------------|(x2)

 Guitar 2
e|------------------------------------------------------|    |------|
B|------------------------------------------------------|    |------|
G|------------------------------------------------------|    |------|
D|--0---------------10-------8----------3---------------|    |--0~--|
A|--0--x24----------10-x8----8--x16-----3--x8----3-x8---| x2 |--0~--|
E|--0---------------10-------8----------3--------2------|    |--0~--|
 
 Added Guitar.
e|------------------|--------------------|
B|----15--17~-18~---|-/18-17-------------|
G|--14--14----------|--------17----------|
D|------------------|--------------------| play the last three notes the 
A|------------------|--------------------|   second time.then repeat the 
E|------------------|--------------------|   the first five notes



e|--------------------------------------------------|
B|----15--17~-18~-18/20/18--17/18/17/18-17-15-------|
G|--14--14------------------------------------17-14~| AFTER THE THIRD TIME
D|--------------------------------------------------| 
A|--------------------------------------------------|
E|--------------------------------------------------|

the added guitar also plays at the start of 2:16

e|---------------------------------------------|
B|---------------------------------------------|
G|---------------------------------------------|
D|---------------------------------------------|
A|--0-0-0-0-0-0--00-00--0-0-0-0-0-0--000-0-00--|
E|--0-0-0-0-0-0--00-00--0-0-0-0-0-0--000-0-00--|(x2)
    . . . . . .  .. ..  . . . . . .  ... . ..

e|---------------------------------------------|
B|---------------------------------------------|
G|---------------------------------------------|
D|---------------------------------------------|
A|--0~0~0~0~0~0~-00~00~-0~0~0~0~0~0~-000~0~00~-|
E|--0~0~0~0~0~0~-00~00~-0~0~0~0~0~0~-000~0~00~-|
    . . . . . .  .. ..  . . . . . .  ... . ..

e|------------------------------------------------|
B|------------------------------------------------|
G|------------------------------------------------|
D|------------------------------------------------|
A|--0---0-0-0-0--00-00--0-0-0-0-0-0--000-0-00--0--|
E|--0---0-0-0-0--00-00--0-0-0-0-0-0--000-0-00--0--|
    .   . . . .  .. ..  . . . . . .  ... . ..  .

e|-----------------------------------|
B|-----------------------------------|
G|-----------------------------------|
D|-----------------------------------|
A|--00~-00~00~0~00~-00~-000~00~------|
E|--11~-11~11~1~11~-11~-111~11~------|(x2)
    ..  .. .. . ..  ..  ... ..

e|-----------------------------------|
B|-----------------------------------|
G|-----------------------------------|
D|-----------------------------------|
A|--00--00-00-0-00--00--000-00-------|
E|--00--00-00-0-00--00--000-00-------|
    ..  .. .. . ..  ..  ... ..

e|------------------------------------|
B|------------------------------------|
G|------------------------------------|
D|------------------------------------|
A|--00~-00~00~0~00~-00~-000~00~--00---|
E|--00~-00~00~0~00~-00~-000~00~--00---|
    ..  .. .. . ..  ..  ... ..   ..


************************************

| /  Slide up
| \  Slide down
| x  Dead note
| ~  Vibrato
| p  Pull-off
| .  Staccato
| *  Natural harmonic

************************************

            
            
Suggest correction
Creating personal tab
Creating personal tab
You can edit any tab online and save it as your Personal.

You can edit, replace or remove any tab part or add personal notes – all changes will be seen only by you.

Personal tabs can be accessed anytime from any device, even offline.
Learn more »
comments
print report bad tab
4 comments total. Showing first comments.
+1 reply
Archaiel 41 Apr 19, 2011 06:14 PM

Nice! You actually tabbed the 3rd guitar whereas most people do not. Why is beyond me because it's clearly what makes the song. Its the first part I ever tried and seeing as though we both came to the same notes, I would say it's correct. :]

0 reply
x79animal 41 Jul 27, 2011 04:07 PM

Great tab, however on this bit your missing the last note

5p0-7p0-10-8-7---|

It should be

5p0-7p0-10-8-7-5-|

Starting and ending on D

0 reply
tiltheskyends 10 Feb 21, 2012 05:31 PM

hey my bands making a cover of this song that sucks but all the guitar 2 should be right eh? i already hav one and that background part of meiotic in chorus done. just making sure this is right XD check us out if u like! or anyone reading, where just starting and this is our first cover.

http://www.facebook.com/pages/Til-The-Sky-Ends/349021195108831?ref=ts

guest
You may want to rate the tab now too:
select rating
Wanna post a correction for this tab? Suggest correction