Oops, an error
Loading. Please wait.

A Prophecy Tab

version 3
version 3

Whole song

Interactive

33,250 views 33 this week
3 commentsread comments
1 2 3 4 5
excellent!
x 5
add to favorites
launch autoscroll
font size
0
reset
how to read this tab
guitar tuner
Tab Pro tools
  • play this tab
  • loop segment
  • change instrument
  • show fretboard
  • metronome
×
Best way to learn
"A Prophecy"
Autoscroll
slow
fast
+/-
esc
set tempo
stop
Contributor
Difficulty
Tuning
advanced
D A D G B E
This is an amazing song by asking alexandria.
about 86% of the credits goes to smorl7 i belive?
his tab was amazing but it had couple mistakes so i fixed them
really quick :)



please..
enjoy, rate, comment, and all that good stuff



A Prophecy
Asking Alexandria



here's how the tab should sound like:
http://www.youtube.com/watch?v=nGhqHtjOjF4




Tuning: Drop D



Intro:



 Guitar 1
e|-----------------------------------|
B|-----------------------------------|
G|-------7/9--9-9-9-7-7/10-10\-------|
D|--0~---x-x--x-x-x-x-x-x--x----0~---|
A|--0~---5/7--7-7-7-5-5/8--8\---0~---|
E|--0~--------------------------0~---|


e|----------------|
B|----------------|
G|----7/9--9-9--7-|
D|----x-x--x-x--x-|
A|----5/7--7-7--5-|
E|----------------|




 Guitar 2
e|-----------------------------------|
B|-----------------------------------|
G|-------7/9--9-9-9-7-7/10-10\-------|
D|--0~---x-x--x-x-x-x-x-x--x----0~---|
A|--0~---5/7--7-7-7-5-5/8--8\---0~---|
E|--0~--------------------------0~---|


e|------------------------|
B|------------------------|
G|----10/12--12-12--10----|
D|----x--x---x--x---x-----|
A|----8-/10--10-10--8-----|
E|------------------------|




-------------------------------------------------------------------------



Verse: strumming(try using rhythm it helps a little too much here ;D )

 Guitar 1
e|--------------------------------------------------|
B|--------------------------------------------------|
G|--10-------9-----10------14-----12-----15---------|
D|--x--x11---x-x6--x--x11--x--x4--x--x2--x--x2------|
A|--8--------7-----8-------12-----10-----13---------|
E|--------------------------------------------------|


e|-------------------------------------------------|
B|-------------------------------------------------|
G|--10------9------10------14-----5------9---------|
D|--x--x11--x--x6--x--x11--x--x4--x--x2--x--x2-----|
A|--8-------7------8-------12-----3------7---------|
E|-------------------------------------------------|



Guitar 2(slight slower at the last two chords)
e|-----------------------------------------------|    
B|-----------------------------------------------|  
G|-----------------------------------------------|  
D|--0--------10-------8----------3---------------|   
A|--0-x11----10--x6---8--x11-----3--x6----3--x6--| x2 
E|--0--------10-------8----------3--------2------|    





--------------------------------------------------------------------------





 






 Both Guitars 
e|---------------------------------------------------|
B|---------------------------------------------------|
G|---------------------------------------------------|
D|---------------------------------------------------|
A|-0000-000-0-000-000000-000-000----5p0-7p0-10-8-7---|
E|-0000-000-0-000-000000-000-000-0-------------------|
   .... ... . ... ...... ... ... .

e|---------------------------------------|
B|---------------------------------------|
G|---------------------------------------|
D|---------------------------------------|
A|--0-000-000-0-000-000000-000-000-000---|
E|--0-000-000-0-000-000000-000-000-000---|
      ... ... . ... ...... ... ... ...




 Guitar 1
e|----------------------------------------------------|
B|----------------------------------------------------|
G|----------------------------------------------------|
D|----------------------------------------------------|
A|-0000-000-0-000-000000-000-000----5p0-7p0-10-8-7--0-|
E|-0000-000-0-000-000000-000-000-0------------------0-|
   .... ... . ... ...... ... ... .


 Guitar 2
e|--------------------------------------------------------|
B|--------------------------------------------------------|
G|--------------------------------------------------------|
D|--------------------------------------------------------|
A|----000-000-0-000-000000-000-000----8p0-10p0-13-12-10-0-|
E|----000-000-0-000-000000-000-000-0--------------------0-|
      ... ... . ... ...... ... ... .




 Guitar 1
e|-------------------------------------------------------|
B|-------------------------------------------------------|
G|-------------------------------------------------------|
D|-------------------------------------------------------|
A|--0-000-000-0-000-000000-000-000----5p0-7p0-10-8-7--0--|
E|--0-000-000-0-000-000000-000-000-0------------------0--|
      ... ... . ... ...... ... ... .                  .


 Guitar 2
e|------------------------------------------------------|
B|------------------------------------------------------|
G|------------------------------------------------------|
D|------------------------------------------------------|
A|----000-000-0-000-000000-000-000----8p0-10p0-13-12-10-|
E|----000-000-0-000-000000-000-000-0--------------------|
      ... ... . ... ...... ... ... .



-----------------------------------------------------------------------



 sick breakdown yo.



 Guitar 1                                       
e|-------------------------------------------------------------------------|
B|-------------------------------------------------------------------------|
G|-------------------------------------------------------------------------|
D|-------------------------------------------------------------------------|
A|--0-0-0-0-0-0-00---------00---00-00-00---7p0-8p0-7p0-5p0-7p0-5p0-5*------|
E|--1-1-1-1-1-1-00---------00---00-00-00-----------------------------------|
    . . . . . . ..         ..   .. .. ..


 Guitar 2                                     
e|-------------------------------------------------------------------------|
B|-------------------------------------------------------------------------|
G|-------------------------------------------------------------------------|
D|-------------------------------------------------------------------------|
A|--0-0-0-0-0-0-00---------00---00-00-00---10p0-12p0-10p0-8p0-10p0-8p0-8*--|
E|--1-1-1-1-1-1-00---------00---00-00-00-----------------------------------|
    . . . . . . ..         ..   .. .. ..






 Guitar 1
e|-------------------------------------------------------------------------|
B|-------------------------------------------------------------------------|
G|-------------------------------------------------------------------------|
D|-------------------5*b---------------------------------------------------|
A|--00~---00~00~00~-------00---00-00-00---7p0-8p0-7p0-5p0-7p0-5p0-5*-------|
E|--00~---00~00~00~-------00---00-00-00------------------------------------|
    ..    .. .. ..        ..   .. .. ..

Guitar 2                                     
e|--------------------------------------------------------------------------|
B|--------------------------------------------------------------------------|
G|--------------------------------------------------------------------------|
D|--------------------------------------------------------------------------|
A|--00-----00~00~00~---------00---00-00-00---10p0-12p0-10p0-8p0-10p0-8p0-8*-|
E|--00-----00~00~00~---------00---00-00-00----------------------------------|
    ..     .. .. ..          ..   .. .. ..




e|----------------------------------|
B|----------------------------------|
G|----------------------------------|
D|----------------------------------|
A|--00~---00~00~00~---0-0-0-0-0-0---|
E|--00~---00~00~00~---1-1-1-1-1-1---|
    ..    .. .. ..    . . . . . .



-------------------------------------------------------------------------




Chorus: strum with good rhythm 


Guitar 1
e|----------------------------------------|
B|----------------------------------------|
G|----7-------9------10------12-----10----| x2
D|----x-x24---x-x8---x--x16--x--x8--x-x8--|
A|----5-------7------8-------10-----8-----|
E|----------------------------------------|



 Guitar 2
e|------------------------------------------------------|    |------|
B|------------------------------------------------------|    |------|
G|------------------------------------------------------|    |------|
D|--0---------------10-------8----------3---------------|    |--0~--|
A|--0--x24----------10-x8----8--x16-----3--x8----3-x8---| x2 |--0~--|
E|--0---------------10-------8----------3--------2------|    |--0~--|
  



 Added Guitar.
e|------------------|--------------------|
B|----15--17~-18~---|-/18-17-------------|
G|--14--14----------|--------17----------|
D|------------------|--------------------| play the last three notes the 
A|------------------|--------------------|   second time.then repeat the 
E|------------------|--------------------|   the first five notes



e|--------------------------------------------------|
B|----15--17~-18~-18/20/18--17/18/17/18-17-15-------|
G|--14--14------------------------------------17-14~| AFTER THE THIRD TIME
D|--------------------------------------------------| 
A|--------------------------------------------------|
E|--------------------------------------------------|


the added guitar also plays at the start of 2:16



-------------------------------------------------------------------------









e|---------------------------------------------|
B|---------------------------------------------|
G|---------------------------------------------|
D|---------------------------------------------| x2
A|--0-0-0-0-0-0--00-00--0-0-0-0-0-0--000-0-00--|
E|--0-0-0-0-0-0--00-00--0-0-0-0-0-0--000-0-00--|
    . . . . . .  .. ..  . . . . . .  ... . ..

e|---------------------------------------------|
B|---------------------------------------------|
G|---------------------------------------------|
D|---------------------------------------------|
A|--0~0~0~0~0~0~-00~00~-0~0~0~0~0~0~-000~0~00~-|
E|--0~0~0~0~0~0~-00~00~-0~0~0~0~0~0~-000~0~00~-|
    . . . . . .  .. ..  . . . . . .  ... . ..

e|------------------------------------------------|
B|------------------------------------------------|
G|------------------------------------------------|
D|------------------------------------------------|
A|--0---0-0-0-0--00-00--0-0-0-0-0-0--000-0-00--0--|
E|--0---0-0-0-0--00-00--0-0-0-0-0-0--000-0-00--0--|
    .   . . . .  .. ..  . . . . . .  ... . ..  .

e|-----------------------------------|
B|-----------------------------------|
G|-----------------------------------|
D|-----------------------------------| x2
A|--00~-00~00~0~00~-00~-000~00~------|
E|--11~-11~11~1~11~-11~-111~11~------|
    ..  .. .. . ..  ..  ... ..

e|-----------------------------------|
B|-----------------------------------|
G|-----------------------------------|
D|-----------------------------------|
A|--00--00-00-0-00--00--000-00-------|
E|--00--00-00-0-00--00--000-00-------|
    ..  .. .. . ..  ..  ... ..

e|------------------------------------|
B|------------------------------------|
G|------------------------------------|
D|------------------------------------|
A|--00~-00~00~0~00~-00~-000~00~--00---|
E|--00~-00~00~0~00~-00~-000~00~--00---|
    ..  .. .. . ..  ..  ... ..   ..


enjoy!!!
please rate and comment.
any questions just ask!
i dont bite :)
comments
print report bad tab
3 comments total.
+1 reply
Archaiel wrote on April 19 2011, 10:14 pm

Nice! You actually tabbed the 3rd guitar whereas most people do not. Why is beyond me because it's clearly what makes the song. Its the first part I ever tried and seeing as though we both came to the same notes, I would say it's correct. :]

0 reply
x79animal wrote on July 27 2011, 08:07 pm

Great tab, however on this bit your missing the last note

5p0-7p0-10-8-7---|

It should be

5p0-7p0-10-8-7-5-|

Starting and ending on D

0 reply
tiltheskyends wrote on February 21 2012, 10:31 pm

hey my bands making a cover of this song that sucks but all the guitar 2 should be right eh? i already hav one and that background part of meiotic in chorus done. just making sure this is right XD check us out if u like! or anyone reading, where just starting and this is our first cover.

http://www.facebook.com/pages/Til-The-Sky-Ends/349021195108831?ref=ts

I want to post or [tab]
guest
You may want to rate the tab now too:
select rating
Please do not post tabs as comments. Select "correction" instead!