Oops, an error
Loading. Please wait.

A Single Moment Of Sincerity Bass Tab

version 2
version 2

Whole song

Interactive

5,367 views 6 this week
1 commentread comment
1 2 3 4 5
excellent!
x 4
add to favorites
launch autoscroll
font size
0
reset
guitar tuner
Tab Pro tools
  • play this tab
  • loop segment
  • change instrument
  • show fretboard
  • metronome
×
Best way to learn
"A Single Moment Of Sincerity"
Autoscroll
slow
fast
+/-
esc
set tempo
stop
Contributor
Difficulty
Tuning
intermediate
D A D G B E
-------------------------------------------------------------------------------
			     A Single Moment Of Sincerity - Asking Alexandria
-------------------------------------------------------------------------------

Tabbed By : Dave Phillips
e-mail: rainbowsplusponies@hotmail.com

Tuning: Drop D

G|--------------------------------------------------|
D|--------------------------------------------------|
A|--------------------------------------------------|
D|-0~0~0~3~3~3~0~0~0~3~3~3~0~0~0~3~3~3~0~0~0~2~2~2~-|

G|--------------------------------------------------|
D|--------------------------------------------------|
A|--------------------------------------------------|
D|-0~0~0~7~7~7~0~0~0~7~7~7~0~0~0~7~7~7~0~0~0~5~5~5~-|

G|--------------------------------------------------|
D|--------------------------------------------------|
A|--------------------------------------------------|
D|-0--0-00-00--0-0--00-000--0--0-00-00--0-0--00-000-|

G|--------------------------------------------------|
D|--------------------------------------------------|
A|--------------------------------------------------|
D|-1~~1~11~11~~~~~~~11~111~~1~~1~11~11~~~~~~~11~111~|

G|--------------------------------------------------|
D|--------------------------------------------------|
A|--------------------------------------------------|
D|-0--0-00-00--0-0--00-000--0--0-00-00--0-0--00-000~|

G|--------------------------------------|
D|--------------------------------------|
A|-5-7-8-7---5-7-8-7---5-7-8-7-8-10-8-7-|
D|--------------------------------------|

G|--------------------------------------|
D|-3-5-7-5---3-5-7-5---3-5-7-5---0~~~~~-|
A|--------------------------------------|
D|--------------------------------------|

G|---------------------------------------------------------|
D|---------------------------------------------------------|
A|-5p0-7p0-8p0-7p0-5p0-7p0--------5p0-7p0-8p0-7p0--7h8-7h8-|
D|-------------------------000000--------------------------|

G|---------------------------------------------------------|
D|-3p0-5p0-7p0-5p0-3p0-5p0--------3p0-5p0-7p0-5p0--5h7-5h7-|
A|---------------------------------------------------------|
D|-------------------------000000--------------------------|

G|-----------------------------------------------------------------------------|
D|----------------------5h7---------------------------5h7----------------------|
A|----------------------------6-6~--3p0-----5p0-------------6-6~--3p0-----5~~--|
D|-000-000-000-000--000-----0-----------2/3-------000-----0-----------2/3------|

G|--------------------------------------------------|
D|------5h7---------------------------5h7-----------|
A|------------6-6~--3p0-----5p0-------------6-6~~~--|
D|--000-----0-----------2/3-------000-----0---------|

G|------------------------------------------------------------|
D|-----5h7---------------------------5h7----------------------|
A|-----------6-6~--3p0-----5p0-------------6-6~--3p0-----5~~--|
D|-000-----0-----------2/3-------000-----0-----------2/3------|

G|------------------------------------------------------------|
D|-----5h7---------------------------5h7----------------------|
A|-----------6-6~--3p0-----5p0-------------6-6~--3p0-----5~~--|
D|-000-----0-----------2/3-------000-----0-----------2/3------|

G|--------------------------------------|
D|--------------------------------------|
A|-------------3p0-5p0-5h6p5~~----------|
D|-00000-00000------------------0-00000-|

G|---------------------------------------------------|
D|---------------------------------------------------|
A|-------------3p0-5p0-5h6p5~~-----------------------|
D|-00000-00000------------------0-00000--8\\\\3////7-|

G|--------------------------------------|
D|--------------------------------------|
A|-------------3p0-5p0-5h6p5~~----------|
D|-00000-00000------------------0-00000-|

G|---------------------------------------------------|
D|---------------------------------------------------|
A|-------------3p0-5p0-5h6p5~~-----------------------|
D|-00000-00000------------------0-00000--8\\\\3////7-|

G|---------------------------------------------------------|
D|---------------------------------------------------------|
A|----------------7h8-8p7-7h8-8p7-7-----7h8-8p7-7h8-8ph-7--|
D|-8----10----000-------------------000--------------------|
    x16   x16

G|---------------------------------------------------------|
D|---------------------------------------------------------|
A|----------------7h8-8p7-7h8-8p7-7-----7h8-8p7-7h8-8ph-7--|
D|-8----10----000-------------------000--------------------|
    x16   x16

G|---------------------------------------------------------------------------------|
D|---------------------------------------------------------------------------------|
A|---------------------------------------------------------------------------------|
D|-8-8-8-8-8-8-8-8-8-8-8-8-8-8-8-8-10-10-10-10-10-10-10-10-10-10-10-10-10-10-10-10-|

G|---------------------------------------------------------------------------------|
D|---------------------------------------------------------------------------------|
A|---------------------------------------------------------------------------------|
D|-8-8-8-8-8-8-8-8-8-8-8-8-8-8-8-8-10-10-10-10-10-10-10-10-10-10-10-10-10-10-10-10-|

G|------------------------------------------------------------------|
D|------------------------------------------------------------------|
A|------------------------------------------------------------------|
D|-0-0-0-0-0-0-0-0--000--0-0-0--0--0~--0-0-0-0-0-0-0--000--000-00-0~|

G|--------------------------------------------------------------|
D|--------------------------------------------------------------|
A|--------------------------------------------------------------|
D|-00-00-00-00-0--0000-0000-0000-0000--00-00-00-00-0--0000-0000-|

G|----------------------------------------------------------------------------|
D|----------------------------------------------------------------------------|
A|----------------------------------------------------------------------------|
D|-00-00-00-00-0--0000-0000-0000-0000--00-00-00-00-0--0000-0000--0000-12\\\\0-|

G|--------------------------------------------------------------|
D|--------------------------------------------------------------|
A|--------------------------------------------------------------|
D|-00~00~00~00~0~~0000~0000~0000~0000~~00~00~00~00~0~~0000~0000~|

G|----------------------------------------------------------------------------------|
D|----------------------------------------------------------------------------------|
A|----------------------------------------------------------------------------------|
D|-00~00~00~00~0~~0000~0000~0000~0000~~00~00~00~00~0~~0000~0000~0000~0000~0000~0~~~~|


| /  slide up
| \  slide down
| h  hammer-on
| p  pull-off
| ~  vibrato
| +  harmonic
| x  Mute note
===============================================================================
comments
print report bad tab
1 comment total.
0 reply
StreetBass252 wrote on May 25 2013, 07:15 pm

Dude, that's a very good Tab. Everything sounds right. I only had problems with this and all similar parts:
G|-----------------------------------------------------------------------------|
D|----------------------5h7---------------------------5h7----------------------|
A|----------------------------6-6~--3p0-----5p0-------------6-6~--3p0-----5~~--|
D|-000-000-000-000--000-----0-----------2/3-------000-----0-----------2/3------|

That's probably not your fault, because this part is kinda complicated to play/learn. Very good job! :)

I want to post or [tab]
guest
You may want to rate the tab now too:
select rating
Please do not post tabs as comments. Select "correction" instead!