Oops, an error
Loading. Please wait.

A Single Moment Of Sincerity Tab

version 3
version 3

Whole song

Interactive

4,650 views 6 this week
1 commentread comment
1 2 3 4 5
x 3
add to favorites
launch autoscroll
font size
0
reset
how to read this tab
guitar tuner
Autoscroll
slow
fast
+/-
esc
set tempo
stop
Help us to improve Ultimate-Guitar.com Take our survey!
×
Author
Asking Alexandria
A Single Moment Of Sincerity (Stand Up and Scream)
Tuning – Drop D ( D A D G B e)
Tabbed by: Cobjayy 
Email: Cobjay_is_here@hotmail.com

This is my first ever tab. I hope you guys like it! :D

Check out my cover of this song using this tab: https://www.youtube.com/watch?v=gQnzlIMc8Z0



Intro 0:03 - False tales...
e|-------------------------------------------------------|
B|-------------------------------------------------------|
G|------10-10-10------10-10-10------10-10-10------9-9-9--|
D|-000--x--x--x--000--x--x--x--000--x--x--x--000--x-x-x--|
A|-000--8--8--8--000--8--8--8--000--8--8--8--000--7-7-7--|
D|-000-----------000-----------000-----------000---------|

e|------------------------------------------------------------------|
B|------------------------------------------------------------------|
G|------14-14-14--------14-14-14-------14-14-14-------12-12-12------|
D|-000---x--x--x---000---x--x--x--000---x--x--x--000---x--x--x------|
A|-000--12-12-12---000--12-12-12--000--12-12-12--000--10-10-10------|
D|-000-------------000------------000------------000----------------|
                                                                  
 Breakdown 0:18 - GET ON YOUR KNEES!                                                          
e|--------------------------------------------|
B|--------------------------------------------|
G|--------------------------------------------|
D|-0--0-0000--00--00-000-0--0-0000-00--00-000-|
A|-0--0-0000--00--00-000-0--0-0000-00--00-000-|
D|-0--0-0000--00--00-000-0--0-0000-00--00-000-|
   .  . ....  ..  .. ... .  . .... ..  .. ...
e|--------------------------------|
B|--------------------------------|
G|--------------------------------|
D|-0--0--0000--00-0-000-0--0-0000-|
A|-0--0--0000--00-0-000-0--0-0000-|
D|-1--1--1111--11-1-111-1--1-1111-|
   .  .  ....  .. . ... .  . ....

e|---------------------------------------------------------|
B|---------------------------------------------------------|
G|---------------------------------------------------------|
D|-000-000-0--0-0000--00--00-000-0--0--0000--00--00-000—0~-|
A|-000-000-0--0-0000--00--00-000-0--0--0000--00--00-000—0~-|
D|-111-111-0--0-0000--00--00-000-0--0--0000--00--00-000—0~-|
   ... ... .  . ....  ..  .. ... .  .  ....  ..  .. ...  

 Verse 0:52 - Tear out my eyes...
e|---------------------|
B|---------------------|
G|---7--7--7--7--------|
D|---x--x--x--x--------|
A|---5--5--5--5--------|
D|---------------------|

e|---------------------------------------------------------------------|
B|---------------------------------------------------------------------|
G|---------------------------------------------------------------------|
D|----------------------------------------3-5-7-5--3-5-7-5--3-5-7-5--0-|
A|-5-7-8-7---5-7-8-7---5-7-8-7-8-10-8-7------------------------------0-|
D|--0-0-0--0--0-0-0--0--0-0-0-0-0--0-0-----0-0-0----0-0-0----0-0-0---0-|
    . . .  .  . . .  .  . . . . .  . .     . . .    . . .    . . .   .
e|----------------------------------------------------------------------|
B|----------------------------------------------------------------------|
G|--------------------------------------------------------------[7]-----|
D|----------------------------------------------------------------[7]---|
A|-5p0p7p0p8p0p7p0p5p0p7p0--000000----5-0-7-0-8-0-7-0--7h8-7h8----------|
D|--------------------------000000------------------------0-------------|
                            ......                        .   
e|-------------------------------------------------------------------|
B|-------------------------------------------------------------------|
G|-----------------------------------------------------------[7]-----|
D|-3-0-5-0-7-0-5-0-3-0-5----------3-0-5-0-7-0-5-0--5h7--5h7----[7]---|
A|------------------------000000-------------------------------------|
D|------------------------000000----------------------0--------------|
                          ......                      .    
e|---------------------------------------------------------------------|
B|----------------------------5-5----------------------5-5----------12-|
G|----------------------------8-8-5p0-----7p0----------8-8-5p0------15-|
D|------------------------------------7h8---------------------7h8------|
A|-000-000-000-000-000-7h8--0-----------------000-7h8-0----------------|
D|-000-000-000-000-000------0-----------------000-----0----------------|
   ... ... ... ... ...      .                 ...     .
                                          

e|-----------------------------------------------|
B|-----------5-5------------------------5-5~-----|
G|-----------8-8-5p0-----7p0------------8-8~-----|
D|-------------------7h8-------------------------|
A|-000-7h8-0-----------------000-7h8-0-----------|
D|-000-----0-----------------000-----0-----------|
   ...     .                 ...     .

e|--------------------------------------------------------|
B|-----------5-5------------------------5-5-----------12--| 
G|-----------8-8-5p0-----7p0------------8-8--5p0------15--|   x2
D|-------------------7h8-------------------------7h8------|
A|-000-7h8-0------------------000-7h8-0-------------------|
D|-000-----0------------------000-----0-------------------|
   ...     .                  ...     .                       
                                                      
e|-------------------------------------------------------------------|
B|-------------------------------------------------------------------|
G|--------------5p0-7p0-7h8p7v-----------7h10p7-6h9p6-7h10p7-9h12p9--|
D|-------------------------------------------------------------------|
A|-00000-00000-------------------------------------------------------|
D|-00000-00000-------------------------------------------------------|
   ..... .....                
                                    
e|-------------------------------|
B|-------------------------------|
G|-------------5p0-7p0-7h8p7v----|
D|-------------------------------|
A|-00000-00000-------------------|
D|-00000-00000-------------------|
   ..... .....                

e|-------------------------------------------------------------------|
B|-------------------------------------------------------------------|
G|--------------5p0-7p0-7h8p7v-----------7h10p7-6h9p6-7h10p7-9h12p9--|
D|-------------------------------------------------------------------|
A|-00000-00000-------------------------------------------------------|
D|-00000-00000-------------------------------------------------------|
   ..... .....                

e|-------------------------------------|
B|-------------------------------------|
G|--------------5p0-7p0-7h8p7v---------|
D|-------------------------------------|
A|-00000-00000-------------------------|
D|-00000-00000-------------------------|
   ..... .....                

  Chorus 1:56 - Spilling every lie you've spilled before...
e|--------------------------------------------------------------|
B|--------------------------------------------------------------|
G|---x16----x16-------------------------------------------------|
D|-8-----10-----------------------------------------------------|
A|-8-----10--------7h8-8p7-7h8-8p7-7h8----7h8-8p7-7h8-8p7-7h8---|
D|-8-----10-----00---0---0---0---0----00-----0---0---0---0------|
                ..   .   .   .   .    ..     .   .   .   .

e|--------------------------------------------------------------|
B|--------------------------------------------------------------|
G|---x16----x16-------------------------------------------------|
D|-8-----10-----------------------------------------------------|
A|-8-----10--------7h8-8p7-7h8-8p7-7h8----7h8-8p7-7h8-8p7-7h8---|
D|-8-----10-----00---0---0---0---0----00----0----0---0---0------|
                ..   .   .   .   .    ..    .    .   .   .

                
e|----------------|--------------------------------------|
B|----------------|--------------------------10h12h13----|
G|---x16---x16----|----------8h10h11---------------------|
D|-8----10--------|-10h12h13-------- 10h12h13------------|
A|-8----10--------|--------------------------------------|
D|-8----10--------|--------------------------------------|
                                      X4 

e|--------------------------------|
B|--------------------------------|
G|---x16----x16-------------------|
D|-8-----10--------------------0~-|
A|-8-----10-----0---0000000----0~-|
D|-8-----10-----0---0000000----0~-|
                .   .......
                     ^^^ Easier enough to work out the number of repetitions. 


Bens Vocals 2:51 - (Arranged for Guitar) Delay and Reverb (Finger Picked)
These Oceans are far between our hearts...

e|--5------0-------4--------0-----7--5--4—4h5----|
B|-----------------------------------------------|
G|------2------2--------2------------------------|
D|--0------0---------2---------------------------|
A|-----------------------------------------------|
D|-----------------------------------------------|

e|-----0-------------7-7/9-7\5-5/7-7/9---|
B|---------------------------------------|
G|--------------4------------------------|
D|--2------2-----------------------------|
A|---------------------------------------|
D|---------------------------------------|

e|--5------0-------4--------0-----7--5--4—4h5----|
B|-----------------------------------------------|
G|------2------2--------2------------------------|
D|--0------0---------2---------------------------|
A|-----------------------------------------------|
D|-----------------------------------------------|

e|-----0-------------7-7/9-7\5/7-7/9-(10)----|
B|-------------------------------------------|
G|--------------4----------------------------|
D|--2------2---------------------------------|
A|-------------------------------------------|
D|-------------------------------------------|


 Final Breakdown (Coda) 3:17 - Scream with the voice of an Angel...
e|-------------------------------------------------------------|
B|-------------------------------------------------------------|
G|-------------------------------------------------------------|
D|-------------------------------------------------------------|
A|-00-00-00-00-0--0000-0000-0000-0000-00-00-00-00-0--0000-0000-|
D|-00-00-00-00-0--0000-0000-0000-0000-00-00-00-00-0--0000-0000-|
   .. .. .. .. .  .... .... .... .... .. .. .. .. .  .... ....

e|--------------------------------------------------------------------|
B|--------------------------------------------------------------------|
G|--------------------------------------------------------------------|
D|---------------------------------------------------------------12\--|
A|-00-00-00-00-0--0000-0000-0000-0000-00-00-00-00-0--0000-0000---12\--|
D|-00-00-00-00-0--0000-0000-0000-0000-00-00-00-00-0--0000-0000---12\--|
   .. .. .. .. .  .... .... .... .... .. .. .. .. .  .... ....

e|--------------------------------------------------------------|
B|--------------------------------------------------------------|
G|--------------------------------------------------------------|
D|--------------------------------------------------------------|
A|-00-00-00-00-0--0000-0000-0000-0000-00-00-00-00-0--0000-0000--|
D|-00-00-00-00-0--0000-0000-0000-0000-00-00-00-00-0--0000-0000--|
   .. .. .. .. .  .... .... .... .... .. .. .. .. .  .... ....
          ^^ Let all these palm-mutes ring out ^^


e|---------------------------------------------------|
B|---------------------------------------------------|
G|---------------------------------------------------|
D|---------------------------------------------------|
A|-00-00-00-00-0--0000-0000-0000-0000-00-00-00-00-0--|
D|-00-00-00-00-0--0000-0000-0000-0000-00-00-00-00-0--|
   .. .. .. .. .  .... .... .... .... .. .. .. .. .  
                  ^^ And these ^^
                                                        
e|----------------------------|
B|----------------------------|
G|----------------------------|
D|--------------------------0~|
A|-0000-0000-0000-0000-0000-0~| 
D|-0000-0000-0000-0000-0000-0~|
   .... .... .... .... ....  
       ^^ And these ^^

| /  Slide up
| \  Slide down
| .  palm mute
| ~  Let ring
| [] Natural harmonic
| h  Hammer on
| p  Pull-off
============================================================================
Suggest correction
Give kudos to tab author, rate the tab!
1 2 3 4 5
comments
print report bad tab
1 comment total.
0 reply
O_Altair 10 Apr 04, 2013 07:16 AM

Best tab for this song!

guest
You may want to rate the tab now too:
select rating
Wanna post a correction for this tab? Suggest correction