Oops, an error
Loading. Please wait.

Alerion Tab

version 2
version 2

Whole song

Interactive

47,621 views 12 this week
17 commentsread comments
1 2 3 4 5
x 29
add to favorites
launch autoscroll
font size
0
reset
how to read this tab
guitar tuner
Autoscroll
slow
fast
+/-
esc
set tempo
stop
Help us to improve Ultimate-Guitar.com Take our survey!
×
Author
Difficulty
Tuning
novice
D A D G B E
Artist: Asking Alexandria
Song: Alerion
Album: Stand Up and Scream

Tuning: Drop D
DADGBE

Both guitars play the same thing
except for the part before the breakdown
both guitars are included there

P.D. This song is extremely hard to play
Props to you if you can play this beast
(Insert sarcasm here)


http://www.youtube.com/watch?v=91AdxMrv7b0&feature=channel

^^^Check that out if you wanna listen to how it sounds^^^
It's a cover I did of this song using this tab :)


0:33

e|---------------------------------|
B|---------------------------------|
G|---------------------------------|
D|---0~----------------------------|
A|---0~------------------0-0-------|
D|---0~------------------0-0-------|
                         * *

0:41

e|---------------------------------|
B|---------------------------------|
G|---------------------------------|
D|--0~-----------------------------|
A|--0~-----------------------------|
D|--0~-----------------------------|


0:48

e|------------------------------------------------------------------------------|
B|------------------------------------------------------------------------------|
G|------------------------------------------------------------------------------|
D|------------------------------------------------------------------------------|
A|--0-0-0-0--------0-0-0-0---0-0---0-0---0-0---0-0-0-0-----------0-0-0-0--------|
D|--0-0-0-0--------0-0-0-0---0-0---0-0---0-0---0-0-0-0-----------0-0-0-0--------|
    * * * *        * * * *   * *   * *   * *   * * * *           * * * *


0:55

e|------------------------------------------------------------------------------|
B|------------------------------------------------------------------------------|
G|------------------------------------------------------------------------------|
D|------------------------------------------------------------------------------|
A|--0-0-0-0--------0-0-0-0---0-0---0-0---0-0---0-0-0-0-----------0-0-0-0--------|
D|--0-0-0-0--------0-0-0-0---0-0---0-0---0-0---0-0-0-0-----------0-0-0-0--------|
    * * * *        * * * *   * *   * *   * *   * * * *           * * * *

1:03

e|-------------------------------------------------------------------------------|
B|-------------------------------------------------------------------------------|
G|-------------------------------------------------------------------------------|
D|-------------------------------------------------------------------------------|
A|--0-0-0-0~--------0-0-0-0---0-0---0-0---0-0---0-0-0-0~---------0-0-0-0~--0-0-0-|
D|--0-0-0-0~--------0-0-0-0---0-0---0-0---0-0---0-0-0-0~---------0-0-0-0~--1-1-1-|
    * * * *         * * * *   * *   * *   * *   * * * *          * * * *   * * *

1:09

e|--------------------------------------------------------------------------------|
B|--------------------------------------------------------------------------------|
G|--------------------------------------------------------------------------------|
D|--------------------------------------------------------------------------------|
A|--0-0-0-0--------0-0-0-0---0-0---0-0---0-0---0-0-0-0-----------0-0-0-0---0-0-0--|
D|--0-0-0-0--------0-0-0-0---0-0---0-0---0-0---0-0-0-0-----------0-0-0-0---1-1-1--|
    * * * *        * * * *   * *   * *   * *   * * * *           * * * *   * * *


1:17

e|---------------------------------|
B|---------------------------------|
G|---------------------------------|
D|---0-----------------------------|
A|---0-----------------------------|
D|---0-----------------------------|

Right Speaker / Guitar

1:23

e|---------------------------------------------|
B|---------------------------------------------|
G|--------------14----12----15----3~-------9~--|
D|----0----0-----x-----x-----x----x~-------x~--|
A|----0----0----12----10----13----1-~------7~--|
D|----0----0-----------------------------------|

1:34

e|-------------------------------------------------------------------|
B|-------------------------------------------------------------------|
G|--------------14----12----15----3-------9~-------9-9-9-9-9-9-9-9-9-|
D|----0----0-----x-----x-----x----x-------x~-------x-x-x-x-x-x-x-x-x-|
A|----0----0----12----10----13----1-------7~-------7-7-7-7-7-7-7-7-7-|
D|----0----0---------------------------------------------------------|


Left Speaker / Guitar

1:23

e|------------------------------------------------|
B|------------------------------------------------|
G|----7----7---10----9----12----7~---------5~-----|
D|----x----x----x----x-----x----x~---------x~-----|
A|----5----5----8----7----10----5~---------3~-----|
D|------------------------------------------------|

1:34

e|--------------------------------------------------------------------|
B|--------------------------------------------------------------------|
G|----7----7---10----9----12----7~---------5~-------5-5-5-5-5-5-5-5-5-|
D|----x----x----x----x-----x----x~---------x~-------x-x-x-x-x-x-x-x-x-|
A|----5----5----8----7----10----5~---------3~-------3-3-3-3-3-3-3-3-3-|
D|--------------------------------------------------------------------|

1:44

e|--------------------------------------------------------------------------------|
B|--------------------------------------------------------------------------------|
G|--------------------------------------------------------------------------------|
D|--------------------------------------------------------------------------------|
A|--0--0--0---------0-0-0----0-0-0------0--0--0---------0-0-0----------0-0---0-0--|
D|--0--0--0---------0-0-0----0-0-0------0--0--0---------0-0-0----------0-0---0-0--|
    *  *  *         * * *    * * *      *  *  *         * * *          * *   * *

1:53

e|--------------------------------------------------------------------------------|
B|--------------------------------------------------------------------------------|
G|--------------------------------------------------------------------------------|
D|--------------------------------------------------------------------------------|
A|--0--0--0---------0-0-0----0-0-0------0--0--0---------0-0-0----------0-0---0-0--|
D|--0--0--0---------0-0-0----0-0-0------0--0--0---------0-0-0----------0-0---0-0--|
    *  *  *         * * *    * * *      *  *  *         * * *          * *   * *

1:59

e|--------------------------------------------------------------------------------|
B|--------------------------------------------------------------------------------|
G|--------------------------------------------------------------------------------|
D|--------------------------------------------------------------------------------|
A|--0--0--0~-------0-0---0-0--0-------0--0--0~---------------0-0---0-0--0---------|
D|--0--0--0~-------0-0---0-0--0-------0--0--0~---------------0-0---0-0--0---------|
    *  *  *        * *   * *  *       *  *  *                * *   * *  *

2:06

e|--------------------------------------------------------------------------------|
B|--------------------------------------------------------------------------------|
G|--------------------------------------------------------------------------------|
D|--------------------------------------------------------------------------------|
A|--0--0--0---------0-0-0----0-0-0------0--0--0---------0-0-0--------0-0---0-0--0-|
D|--0--0--0---------0-0-0----0-0-0------0--0--0---------0-0-0--------0-0---0-0--0-|
    *  *  *         * * *    * * *      *  *  *         * * *        * *   * *  *


Suggest correction
comments
print report bad tab
17 comments total. Showing first comments.
-2 reply
hatchetman515 105 Apr 08, 2010 10:20 PM

great tab! but i dont think its that hard to play, maybe a little on the tempo.. but yea, good job!

0 reply
joseluis92 453 Apr 10, 2010 10:41 PM

Hahaha sarcasm is so hard to read over the internet these days!!! Gah! I have a cover of this on youtube too and like 5 people have told me the same thing xD

0 reply
basilketchum 50 Jun 27, 2010 04:01 PM

i can't play this. wtffff why do they make their songs so difficult for people to figger out. 1 star for effort. (kidding)

guest
You may want to rate the tab now too:
select rating
Wanna post a correction for this tab? Suggest correction