Oops, an error
Loading. Please wait.

Believe tab

version 1
version 1

Whole song

Interactive

11,066 views 24 this week
7 commentsread comments
1 2 3 4 5
x 9
add to favorites
×
Save as Personal and add changes to this tab that will be seen only by you. Learn more ›
×
You can save this tab as Personal to edit and correct it or add notes. All changes will be seen only by you. Learn more »
launch autoscroll
font size
0
reset
how to read this tab
guitar tuner
edit
Autoscroll
slow
fast
+/-
esc
set tempo
stop
ASKING ALEXANDRIA
DROP B
BELIEVE



Intro (with distant effects)
Gtr1
C#|------------------|     ----------------|
G#|---|start---------|     ----------------|
E |---|--------------|     ----------------|
B |---|--------------| x8  ----------------|
F#|-000-0-00--0-0-00-|     -000~0~0~0~0~0~-|
B |-000-0-00--0-0-00-|     -000~0~0~1~1~1~-|

0:31
C#|-----------------|------------------|------------------|---------------|
G#|-----------------|------------------|------------------|---------------|
E |-----------------|------------------|------------------|---------------|
B |-----------------|------------------|------------------|---------------| x3
F#|-0~0~0~000~000~0~|-0~0~0000~0~000~0~|-0~0~0~000~000000~|-0~0~0~0~0~0~--|
B |-0~0~0~000~000~0~|-0~0~0000~0~000~0~|-0~0~0~000~000000~|-0~0~0~1~1~1~--|



Fast riff 0:51
Gtr1
C#|---------------------|-------------------|-------------------|--------F---A---S---T--|
G#|-------------------------------------------------------------------------------------|
E |---------------------------------------------------------------------5---------------|
B |-----------------------------5----------------------------------------8-7-8-7-5------|
F#|---8-7-5-7-8-----------8-7-5---8-----------8-7-5-7-8-----------8-7-5------------8-7--|
B |-00-0-0-0-0--7h8p7-5-00-0-0-0-0--7h8p7-5-00-0-0-0-0--7h8p7-5-00-0-0------------------|
||  ** * * * *          ** * * * *          ** * * * *          ** * *
Gtr2
C#|---------------------|-------------------|-------------------|-----------------------|
G#|-------------------------------------------------------------------------------------|
E |-------------------------------------------------------------------------------------|
B |-0~~-------------------------------------0~~-----------------0~------\\\\\SCRAPE-----|
F#|-0~~-----------------stop----------------0~~-----------------0~------\\\\\SCRAPE-----|
B |-0~~-----------------ring----------------0~~-----------------0~------\\\\\-----------|..


Verse 1:01
Gtr1
C#|---------------------|-------------------|-------------------|--------F---A---S---T--|
G#|-------------------------------------------------------------------------------------|
E |---------------------------------------------------------------------5---------------|
B |-----------------------------5----------------------------------------8-7-8-7-5------| x2
F#|---8-7-5-7-8-----------8-7-5---8-----------8-7-5-7-8-----------8-7-5------------8-7--|
B |-00-0-0-0-0--7h8p7-5-00-0-0-0-0--7h8p7-5-00-0-0-0-0--7h8p7-5-00-0-0------------------|
||  ** * * * *          ** * * * *          ** * * * *          ** * *
Gtr2(1:10)
C#|---------------------|-------------------|-------------------|--------F---A---S---T--|
G#|---------------------------------------------------------------------5---------------|
E |-----------------------------5----------------------------------------7-5-7-5--------|
B |---7-5---5-7-----------7-5-----7-----------7-5---5-7-----------7-5------------8-7-5--| x1
F#|-------8-------------------8-------------------8-------------------8-----------------|
B |-00-0-0-0-0--7h8p7-5-00-0-0-0-0--7h8p7-5-00-0-0-0-0--7h8p7-5-00-0-0------------------|
    ** * * * *          ** * * * *          ** * * * *          ** * *

   W A R P


Chorus 1:23
C#|----------------------------------|----------------------------|--------|------------------------|
G#|-------------------------------------------------------------------------------------------------|
E |-------------------------------------------------------------------------------------------------|
B |---------------------------------------------------------------5---------8-----8-----3-----10----|
F#|-0000-00000-0000-00000-00000000-8888-88888-8888-88888-55553333-5(x16)----7(x4)-8(x4)-3(x4)-10(x4)|
B |-0000-00000-0000-00000-00000000-8888-88888-8888-88888-55553333-5---------8-----8-----3-----10----|


Chorus Part 2 1:43
Gtr1
C#|-----------------------------------------------------------------|
G#|-----------------------------------------------------------------|
E |-----------------------------------------------------------------|
B |-----------------------------------------------------------------|
F#|-----------------------------------------------------------------|
B |-12~(x32)--8~(x16)-7~(x16)-8~(x32)--10~(x16)-8~(x8)-0~~~---------|
Gtr2
C#|-----------------------------------------------------------------|
G#|-10~~~~--------11~~~~--------------10~~~~------------------------|
E |-------12~~10~~------14~h15p14-12~~------12~~10~~9~~~~10~~-------|
B |----------------------------------------------------------12~~---|
F#|-----------------------------------------------------------------|
B |-----------------------------------------------------------------|


Verse 2 2:01
Gtr1
C#|---------------------------------------------------------|
G#|---------------------------------------------------------|
E |---------------------------------------------------------|
B |---------------------------------------------------------| x2
F#|-0000-00-0~--00000-00000-00~-0000-00-0~--00000-00000-00~-|
B |-0000-00-0~--00000-00000-00~-0000-00-0~--00000-00000-00~-|
Gtr2
C#|--------------------------------------------------------------------------|
G#|--------------------------------------------------------------------------|
E |-14~~~~--------15~~~~---------------14~~~~--------------------------------|
B |-------17~~15~~------19~~h20p19-17~~------17~~15~~14~~~~15~~h17p15--------|
F#|------------------------------------------------------------------17~~~~--|
B |--------------------------------------------------------------------------|
Gtr3
C#|--------------------------------------------------------------------------|
G#|-13~~~~--------15~~~~---------------13~~~~--------------------------------|
E |-------15~~14~~------17~~h18-17-15~~------15~~14~~12~~~~14~~h15p14--------|
B |------------------------------------------------------------------15~~~~--|
F#|--------------------------------------------------------------------------|
B |--------------------------------------------------------------------------|
If you have a good amp, you can put Gtr2 & 3 together without it
sounding bad. 


         Play Chorus 2:22 - 2:40

         Play 'Fast Riff' 2:41 - 2:50 (No fast bit at end)



Super effected Breakdown 2:50
C#|-------------------------------------------------------------------------------------------------|
G#|-------------------------------------------------------------------------------------------------|
E |-------------------------------------------------------------------------------------------------|
B |-----------------------------------------------------------------------BUZZZ---------------------|
F#|-0000~0~0~0~0~0~0~-BUZZZZZ-0000~0~0~0~00~0~0~---------0000-0-0-0-0-0-0-000----5530-0-0-1-1-2-2-3-|
B |-0000~0~0~0~0~0~0~---------0000~0~0~0~00~0~0~-BUZZZZZ-0000-0-0-0-0-0-0-00000--5530-0-0-1-1-2-2-3-|


    Play Chorus 3:09 - 3:46 (x2)

then 3:47
C#|----------------------------------------------------------|
G#|----------------------------------------------------------|
E |----------------------------------------------------------|
B |------------------0~----------------0~--------------------|
F#|-0-00000-00000-00-0~-----00---------0~-//turns into drone-|
B |-0-00000-00000-00-0~-----00---------0~--------------------|

Outro part 3:57
Gtr1
C#|--------------------------------|
G#|--------------------------------|
E |-14~~~--12~~~---15~~~~-14~~~12~-|
B |-------------15~----------------| x4
F#|--------------------------------|
B |--------------------------------|
Gtr2 (does this when needed)
C#|-----------------------------------------|------------------------|
G#|-----------------------------------------|------------------------|
E |------14b15r14-12~-12b14-9-10-9-10-9-----|--10-12-10b12r10--------|
B |-------------------------------------12~-|-----------------12///--|
F#|-----------------------------------------|------------------------|
B |------------------------------------------------------------------|


Done.. what a mission. please rate and comment

            
            
Suggest correction
Creating personal tab
Creating personal tab
You can edit any tab online and save it as your Personal.

You can edit, replace or remove any tab part or add personal notes – all changes will be seen only by you.

Personal tabs can be accessed anytime from any device, even offline.
Learn more »
comments
print report bad tab
7 comments total. Showing first comments.
0 reply
PinkiePie2 259 Aug 13, 2013 08:15 PM

Thx! 5+
Now I need Gp version)

+1 reply
deathfromala 5,573 Aug 13, 2013 10:41 PM

Another way to do Gtr2 'Main Riff' part. This may be easier

C#|--------------------------|------------------------|-----------------------|------------F----A----S----T--|
G#|----------------------------------------------------------------------------------------------------------|
E |--------------------------------------------------------------------------------------9-------------------|
B |-------------------------------------10------------------------------------------------12-10-12-10--------|
F#|---12-10-8--10-12-----------12-10-8-----12-----------12-10-8--10-12-----------12-10-8-------------13-12-10|
B |-00--0--0--0--0---7h8p7-5-00--0--0--0--0---7h8p7-5-00--0--0--0--0---7h8p7-5-00--0--0----------------------|
** * * * * ** * * * * ** * * * * ** * *

0 reply
baptistelebail 10 Mar 29, 2016 02:42 PM

I believe (no pun intended) that the outro part for Gtr1 is this :
Reapeat 2 times, with the last note (12) played only on second time

C#|-----------------------------------------------------------------------------------------------------------|
G#|-----------15-11-10-----------------15-11-10~~------------15-11-10-------11---14---------------------------|
E |--12-14-15-----------------12-14-15--------------12-14-15------------------------15-14---------------------|
B |--------------------12~~-------------------------------------------12~~-----------------15-14-15-14-12-----|
F#|-----------------------------------------------------------------------------------------------------------|
B |-----------------------------------------------------------------------------------------------------------|

guest
You may want to rate the tab now too:
select rating
Wanna post a correction for this tab? Suggest correction