Oops, an error
Loading. Please wait.

Break Down The Walls Bass Tab

version 1
version 1

Whole song

Interactive

1,778 views 3 this week
no commentswrite comment
1 2 3 4 5
please rate
add to favorites
launch autoscroll
font size
0
reset
guitar tuner
Tab Pro tools
  • play this tab
  • loop segment
  • change instrument
  • show fretboard
  • metronome
×
Best way to learn
"Break Down The Walls"
Autoscroll
slow
fast
+/-
esc
set tempo
stop
Contributor
Difficulty
Tuning
intermediate
C G C F A D
  Intro
F|-------------------------------------------------------------------|
C|o-----------------------------------------------------------------o|
G|o---------------------------------1-1-1-1-1-1-1-1---------4-4-4-4-o|
C|--0-0-0-0-0-0-0-0-0-0-0-0-0-0-0-0-----------------5-5-5-5----------|
    1 + 2 + 3 + 4 + 1 + 2 + 3 + 4 + 1 + 2 + 3 + 4 + 1 + 2 + 3 + 4 +

  Verse x4
F|------------------------------------------------------------------|
C|o-----------------------------------------------------------------|
G|o-----------------------------------------------------------------|
C|--0-------0-0-0-0---0-0---0-------0-------0-0-0-0---0-0---0-------|
    1 e + a 2 e + a 3 e + a 4 e + a 1 e + a 2 e + a 3 e + a 4 e + a

F|------------------------------------------------------------------|
C|-----------------------------------------------------------------o|
G|-1-------1-1-1-1---1-1---1-----------------------4-4-4-4-4-4-4-4-o|
C|---------------------------------5-------5-5-5-5------------------|
   1 e + a 2 e + a 3 e + a 4 e + a 1 e + a 2 e + a 3 e + a 4 e + a

  Chorus
F|-------------------------------------------------------------------|
C|o-----------------------------------------------------------------o|
G|o---------------------------------1-1-1-1-1-1-1-1---------4-4-4-4-o|
C|--0-0-0-0-0-0-0-0-0-0-0-0-0-0-0-0-----------------5-5-5-5----------|x4
    1 + 2 + 3 + 4 + 1 + 2 + 3 + 4 + 1 + 2 + 3 + 4 + 1 + 2 + 3 + 4 +

F|-----------------------------------------------------------------|
C|-----------------------------------------------------------------|
G|-----------------------------------------------------------------|
C|-11b---0---0-0-0-0---0-------0-0-11b---0-0-0---0-0-------0-0-0-0-|
   1 e + a 2 e + a 3 e + a 4 e + a 1 e + a 2 e + a 3 e + a 4 e + a

F|-----------------------------------------------------------------|
C|-----------------------------------------------------------------|
G|---------------------------------1---1---1---1---4-4-4-4---------|
C|-0-0---0-----0---0---0-------------------------------------------|
   1 e + a 2 e + a 3 e + a 4 e + a 1 e + a 2 e + a 3 e + a 4 e + a

  Verse x3
F|------------------------------------------------------------------|
C|o-----------------------------------------------------------------|
G|o-----------------------------------------------------------------|
C|--0-------0-0-0-0---0-0---0-------0-------0-0-0-0---0-0---0-------|
    1 e + a 2 e + a 3 e + a 4 e + a 1 e + a 2 e + a 3 e + a 4 e + a

F|------------------------------------------------------------------|
C|-----------------------------------------------------------------o|
G|-1-------1-1-1-1---1-1---1-----------------------4-4-4-4-4-4-4-4-o|
C|---------------------------------5-------5-5-5-5------------------|
   1 e + a 2 e + a 3 e + a 4 e + a 1 e + a 2 e + a 3 e + a 4 e + a

  Chorus
F|-------------------------------------------------------------------|
C|o-----------------------------------------------------------------o|
G|o---------------------------------1-1-1-1-1-1-1-1---------4-4-4-4-o|
C|--0-0-0-0-0-0-0-0-0-0-0-0-0-0-0-0-----------------5-5-5-5----------|x4
    1 + 2 + 3 + 4 + 1 + 2 + 3 + 4 + 1 + 2 + 3 + 4 + 1 + 2 + 3 + 4 +

F|-----------------------------------------------------------------|
C|-----------------------------------------------------------------|
G|-----------------------------------------------------------------|
C|-11b---0---0-0-0-0---0-------0-0-11b---0-0-0---1-------1-------1-|
   1 e + a 2 e + a 3 e + a 4 e + a 1 e + a 2 e + a 3 e + a 4 e + a

F|-----------------------------------------------------------------|
C|-----------------------------------------------------------------|
G|-----------------------------------------------------------------|
C|-0-0---0---0-0-0-0---0---0-0-0-0-0-0---0---0-0-0-0---0---0-0-0-0-|
   1 e + a 2 e + a 3 e + a 4 e + a 1 e + a 2 e + a 3 e + a 4 e + a

F|-----------------------------------------------------------------|
C|-----------------------------------------------------------------|
G|-----------------------------------------------------------------|
C|-11b-----0-0-0-0---0---------0-0-15----1--1--1--1-------1------1-|
   1 e + a 2 e + a 3 e + a 4 e + a 1 e + a 2 e + a 3 e + a 4 e + a

F|-----------------------------------------------------------------|
C|-----------------------------------------------------------------|
G|---------------------------------1---1---1---1-------------------|
C|-0-0---0---0-0-0-0---0---0-0-0-0---------------------------------|
   1 e + a 2 e + a 3 e + a 4 e + a 1 e + a 2 e + a 3 e + a 4 e + a

  Solo
F|-------------------------------------------------------------------|
C|o-----------------------------------------------------------------o|
G|o-----------------------------------------------------------------o|
C|--0-0-0-0-0-0-0-0-0-2-2-2-2-2-2-2-2-3-3-3-3-3-3-3-3-5-5-5-5-5-5-5--|x2
    1 + 2 + 3 + 4 + 1 + 2 + 3 + 4 + 1 + 2 + 3 + 4 + 1 + 2 + 3 + 4 +

F|-----------------------------------------------------------------|
C|-----------------------------------------------------------------|
G|-5-5-5-5-5-5-5-5-5-4-4-4-4-4-4-4-4-1-1-1-1-1-1-1-----------------|
C|-------------------------------------------------5-5-5-5-5-5-5-5-|
   1 + 2 + 3 + 4 + 1 + 2 + 3 + 4 + 1 + 2 + 3 + 4 + 1 + 2 + 3 + 4 +

F|-------------------------------------------------------------------|
C|-------------------------------------------------------------------|
G|-5-5-5-5-5-5-5-5-5-7-7-7-7-7-7-7-7-4-4-4-4-4-4-4-------------------|
C|-------------------------------------------------5-5-5-5-5-5-5-5-5-|
   1 + 2 + 3 + 4 + 1 + 2 + 3 + 4 + 1 + 2 + 3 + 4 + 1 + 2 + 3 + 4 + 1

  Chorus
F|-------------------------------------------------------------------|
C|o-----------------------------------------------------------------o|
G|o---------------------------------1-1-1-1-1-1-1-1---------4-4-4-4-o|
C|--0-0-0-0-0-0-0-0-0-0-0-0-0-0-0-0-----------------5-5-5-5----------|x4
    1 + 2 + 3 + 4 + 1 + 2 + 3 + 4 + 1 + 2 + 3 + 4 + 1 + 2 + 3 + 4 +

F|-----------------------------------------------------------------|
C|-----------------------------------------------------------------|
G|-----------------------------------------------------------------|
C|-11b---0---0-0-0-0---0-------0-0-11b---0-0-0---0-0-------0-0-0-0-|
   1 e + a 2 e + a 3 e + a 4 e + a 1 e + a 2 e + a 3 e + a 4 e + a

F|-----------------------------------------------------------------|
C|-----------------------------------------------------------------|
G|---------------------------------1---1---1---1---4-4-4-4---------|
C|-0-0---0-----0---0---0-------------------------------------------|
   1 e + a 2 e + a 3 e + a 4 e + a 1 e + a 2 e + a 3 e + a 4 e + a

Tabbed By Jack Mills
comments
We did not receive enough feedback on this tab! Please rate:
print report bad tab
1 2 3 4 5
I want to post or [tab]
guest
You may want to rate the tab now too:
select rating
Please do not post tabs as comments. Select "correction" instead!