Oops, an error
Loading. Please wait.

Break Down The Walls Bass Tab

version 2
version 2

Whole song

Interactive

496 views 6 this week
no commentswrite comment
1 2 3 4 5
please rate
add to favorites
launch autoscroll
font size
0
reset
guitar tuner
Autoscroll
slow
fast
+/-
esc
set tempo
stop
Help us to improve Ultimate-Guitar.com Take our survey!
×
Author
Difficulty
Tuning
intermediate
C G C G C E
Break Down The Walls Asking Alexandria 

It's not that hard of a song, Drop C

Intro [0:06]
F|-------------------------------------|
C|-------------------------------------|
G|-3333333333333333--------------------|
C|------------------44444444-1111-3333-| X2


Verse [0:19]

F|----------------------------------------------------------|
C|----------------------------------------------------------|
G|-------------------------------4-4444-44-4----1-1111-33-3-|
C|-1-1111-11-1----1-1111-11-1-------------------------------|x4

Chorus [0:49]

F|-------------------------------------|
C|-3333333333333333--------------------|
G|------------------44444444-1111-3333-|
C|-------------------------------------|x4

[1:16]
F|----------------------------------------------------------|
C|----------------------------------------------------------|
G|----------------------------------------------------44444-|
C|-11b-11b-00000----11b-11b-00000----11b-11b-00000----------|

Verse [1:23]

F|----------------------------------------------------------|
C|----------------------------------------------------------|
G|-------------------------------4-4444-44-4----1-1111-33-3-|
C|-1-1111-11-1----1-1111-11-1-------------------------------|x3

Chorus [1:46]

F|-------------------------------------|
C|-3333333333333333--------------------|
G|------------------44444444-1111-3333-|
C|-------------------------------------|x4

[2:13]

F|----------------------------------------------------------|
C|----------------------------------------------------------|
G|----------------------------------------------------------|
C|-11b-11b-00000----11b-11b-00000----11b-11b-00000----------|x1


F|----------------------------------------------------------|
C|----------------------------------------------------------|
G|----------------------------------------------------44444-|
C|-11b-11b-00000----11b-11b-00000----11b-11b-00000----------|x1

Solo/Bridge [2:26]
F|-------------------------------------|
C|-33333333-55555555-66666666-88888888-|
G|-------------------------------------|
C|-------------------------------------|x2


F|-------------------------------------|
C|-33333333-22222222-------------------|
G|-------------------44444444-11111111-|
C|-------------------------------------|x2
 
Chorus [2:56]

F|-------------------------------------|
C|-3333333333333333--------------------|
G|------------------44444444-1111-3333-|
C|-------------------------------------|x4

[3:22]

F|----------------------------------------------------------|
C|----------------------------------------------------------|
G|----------------------------------------------------44444-|
C|-11b-11b-00000----11b-11b-00000----11b-11b-00000----------|

This is my first tab, so please reduce the insults. :)
Suggest correction
Give kudos to tab author, rate the tab!
1 2 3 4 5
comments
print report bad tab
guest
You may want to rate the tab now too:
select rating
Wanna post a correction for this tab? Suggest correction