Oops, an error
Loading. Please wait.

Breathless Tab

version 1
version 1

Whole song

Interactive

56,213 views 51 this week
2 commentsread comments
1 2 3 4 5
x 14
add to favorites
launch autoscroll
font size
0
reset
how to read this tab
guitar tuner
Autoscroll
slow
fast
+/-
esc
set tempo
stop
Help us to improve Ultimate-Guitar.com Take our survey!
×
Author
Tuning
C G C F A D
Artist: Asking Alexandria
Song: Breathless
Tabbed by: lamejmole
Email: lamejmole@yahoo.com

Tuning: Drop C

[Intro]
D|---------------------------------------------------------------------|
A|---------------------------------------------------------------------|
F|--this part-------------------------the last tym goes----------------|
C|--play x3---------------------------lyk this...----------------------|
G|--000~-0~-0~--0~-0~-0~--0000~-0000~--000~-0~-0~--0~-0~-0~--0000~-0---|
C|--000~-0~-0~--0~-0~-0~--0000~-0000~--000~-0~-0~--0~-0~-0~--0000~-0---|

D|--------------------------------------------------------------------------|
A|--------------------------------------------------------------------------|
F|--this part-------------------------the last tym goes---------------------|
C|--play x3---------------------------lyk this...---------------------------|
G|--000~-0~-0~--0~-0~-0~--0000~-0000~--000~-0~-0~--0~-0~-0~--0000~----------|
C|--000~-0~-0~--0~-0~-0~--0000~-0000~--000~-0~-0~--0~-0~-0~--0000~-8888-7777|

D|---------------------------------------------------|
A|---------------------------------------------------|
F|---------------------------------------------------| play x2
C|---------------------------------------------------|
G|----7-8b------10-------7-8b------------------------|
C|--00-0--00-8-0---0x6-00-0--00-8-0-7-00-8888-7777---|

D|------------------------------------------------------|
A|------------------------------------------------------|
F|------------------------------------------------------| play x2
C|------------------------------------------------------|
G|----7-8b------10----------7-8b------------------------|
C|--00-0--00-8-0---000000-00-0--00-8-0-7-00-8888-7777---|

[Chorus]
D|--------------------------------|
A|--------------------------------|
F|--------------------------------|
C|--8-----5-----0-----3-----------| play x2(con't...)
G|--8-x8--5-x8--0-x8--3-x8--------|
C|--8-----5-----0-----3-----------|

D|--------------------------------|
A|--------------------------------|
F|--------------------------------|
C|--------------------------------|strummed really slow(con't...)
G|--0-x8--0-x8--0-x8--0-x8--------|
C|--8-----5-----0-----3-----------|

D|----------------------------------|
A|----------------------------------|
F|----------------------------------|
C|----------------------------------|strummed really slow
G|--0-x8--0-x8--0-x8--0-x8--0~------|
C|--8-----5-----0-----3-----1~------|

D|-----------------------------------|
A|-----------------------------------|
F|-----------------------------------|
C|-----------------------------------| play x2
G|--00-00-000000-000000-0000-0000----|
C|--00-00-000000-000000-0000-0000----|

D|--------------------------------|
A|--------------------------------|
F|--------------------------------|
C|--------------------------------| play x2
G|--00~-00~-000000~--000000~------|
C|--00~-00~-000000~--000000~------|

D|--------------------------------|
A|--------------------------------|
F|--------------------------------|
C|--------------------------------|
G|--00-00-000000--000000----------|
C|--00-00-000000--000000----------|

D|----------------------------------|
A|----------------------------------|
F|----------------------------------|
C|----------------------------------|
G|--00-00-000000--00000000----------|
C|--00-00-000000--00000000----------|

[Chorus]
D|--------------------------------|
A|--------------------------------|
F|--------------------------------|
C|--8-----5-----0-----3-----------| play x2(con't...)
G|--8-x8--5-x8--0-x8--3-x8--------|
C|--8-----5-----0-----3-----------|

D|--------------------------------|
A|--------------------------------|
F|--------------------------------|
C|--------------------------------|strummed really slow(con't...)
G|--0-x8--0-x8--0-x8--0-x8--------|
C|--8-----5-----0-----3-----------|

D|--------------------------------|
A|--------------------------------|
F|--------------------------------|
C|--------------------------------|strummed really slow(con't...)
G|--0-x8--0-x8--0-x8--0-x8--------|
C|--8-----5-----0-----3-----------|

D|--------------------------------|
A|--------------------------------|
F|--------------------------------|
C|--------------------------------|strummed really slow(con't...)
G|--0-x8--0-x8--0-x8--0-x8--------|
C|--8-----5-----0-----3-----------|

[Guitar 1]
D|--------------------------------|
A|--------------------------------|
F|--------------10----9-----------|
C|--------------x-x8--x-x8--------|strummed really slow
G|--0-x8--0-x8--8-----7-----------|
C|--8-----7-----------------------|

[Guitar 2]
D|---------------------------------|
A|---------------------------------|
F|---------------------------------|
C|---------------------------------|strummed really slow
G|--0-x8--0--x8--------------------|
C|--8-----10-----------------------|

[Guitar 1]
D|---------------------------------|
A|---------------------------------|
F|--------------10----12-----------|
C|--------------x-x8---x-x8--------|strummed really slow
G|--0-x8--0-x8--8-----10-----------|
C|--8-----7------------------------|

[Guitar 2]
D|---------------------------------|
A|---------------------------------|
F|---------------------------------|
C|---------------------------------|strummed really slow
G|--0-x8--0--x8--------------------|
C|--8-----10-----------------------|

[Guitar 1]
D|-----------------------------------------------------------|
A|-----------------------------------------------------------|
F|-----------everything x2-----------------------------------|
C|-----------------------------------------------------------|strummed really
G|--0-x8--0-x8--000~-0~-0~-000~-0~-0~-000~-000~--------------|   slow
C|--8-----7-----000~-0~-0~-000~-0~-0~-000~-000~--------------|

[Guitar 2]
D|-----------------------------------------------------------|
A|-----------------------------------------------------------|
F|-----------everything x2-----------------------------------|strummed really
C|-----------------------------------------------------------| slow
G|--0-x8--0-x8--000~-0~-0~-000~-0~-0~-000~-000~--------------|
C|--8-----10----000~-0~-0~-000~-0~-0~-000~-000~--------------|

[Guitar 1 & 2]
(end off with this)
D|-----------------------------------------------------------------------|
A|-----------------------------------------------------------------------|
F|-----------------------------figure out the----------------------------|
C|--0~-------------------------timing yourself---------------------------|
G|--0~~---------------000~-0~-0~-000~-0~-0~-000~-000--000~-0~-0~-000-----|
C|--0~----8888-7777---000~-0~-0~-000~-0~-0~-000~-000~-000~-0~-0~-000-----|

D|---------------------------------|
A|---------------------------------|
F|---------------------------------|
C|---------------------------------|play x2
G|--000-0-0-000-0-0-000-000--------|
C|--000-0-0-000-0-0-000-000--------|

D|-----------------------------------------|
A|-----------------------------------------|
F|-----------------------------------------|
C|-----------------------------------------|play x2
G|--000~-0~-0~-000~-0~-0~-000~-000~--------|
C|--000~-0~-0~-000~-0~-0~-000~-000~--------|

D|---------------------------------|
A|---------------------------------|
F|---------------------------------|
C|---------------------------------|play x2
G|--000-0-0-000-0-0-000-000--------|
C|--000-0-0-000-0-0-000-000--------|
                            
D|-----------------------------------------|
A|-----------------------------------------|
F|-----------------------------------------|
C|-----------------------------------------|play x2
G|--000~-0~-0~-000~-0~-0~-000~-000~--------|
C|--111~-1~-1~-111~-1~-1~-111~-111~--------|

D|-------------------------------------------------------|
A|-------------------------------------------------------|
F|-------------------------------------------------------|
C|-------------------------------------------------------|
G|--------------------000-0-0--------------8-7-5---0-----|
C|--00000000-8-7-0-5--000-0-0--00000000-10---------0-----|

D|--------------------------------------------------------|
A|--------------------------------------------------------|
F|--------------------------------------------------------|
C|--------------------------------------------------------|
G|--------------------000-0-0--------------8-7-5---0~-----|
C|--00000000-8-7-0-5--000-0-0--00000000-10---------1~-----|

D|-------------------------------------------------------------------------|
A|-------------------------------------------------------------------------|
F|-----------------------------------------------------------play----------|
C|------------------------------------------------------0~----x2-----------|
G|--------------------000-0-0--------------8-7-8---0~---0~--000-0-0--10\----|
C|--00000000-8-7-0-5--000-0-0--00000000-10---------1~---0~--000-0-0--10\---|

D|-------------------------------------------------------------------------|
A|-------------------------------------------------------------------------|
F|-------------------------------------------------------------------------|
C|--------------------------------------------------------------------con't|
G|--000-0-0--000-0-0--000-000-0-0-000-0-0-000-0-0-000--000-0-0-000-0-0-----|
C|--000-0-0--000-0-0--000-000-0-0-000-0-0-000-0-0-000--000-0-0-000-0-0-----|

D|-----------------------------------------------------------------|
A|-----------------------------------------------------------------|
F|-----------------------------------------------------------------|
C|-----------------------------------------------------------------|
G|--000-0-0--000-000-0-0-000-0-0-000-0-0--10p0-7h8p0-5p0-4p0-------|
C|--000-0-0--000-000-0-0-000-0-0-000-0-0---------------------------|

D|--------------------------------------------------------------|
A|--------------------------------------------------------------|
F|--------------------------------------------------------------|
C|--------------------------------------------------------------|
G|--000-0-0-000-0-0-000-0-0--0-00--10p0-7h8p0-5p0-4p0-----------|
C|--000-0-0-000-0-0-000-0-0--0-00-------------------------------|

D|--------------------------------------------------------------|
A|--------------------------------------------------------------|
F|--------------------------------------------------------------|
C|--------------------------------------------------------------|
G|--000-0-0-000-0-0-000-0-0--0-00--000-000-000-0-0--------------|
C|--000-0-0-000-0-0-000-0-0--0-00--000-000-000-0-0--------------|


************************************

| ~  Vibrato
| b  Bend
| x  Dead note
| \  Slide down
| h  Hammer-on
| p  Pull-off

************************************
Suggest correction
comments
print report bad tab
2 comments total.
0 reply
knifeline98 10 Jul 04, 2011 12:37 PM

the end isnt right...there's some missing notes

0 reply
davidgold307 10 Nov 28, 2015 12:28 PM

Rhythm is right notes are mostly wrong from what I see
the first breakdown should be 00 5 0 85 0 47 All 0s on Low C and 5,8,4,7 on G

guest
You may want to rate the tab now too:
select rating
Wanna post a correction for this tab? Suggest correction