Oops, an error
Loading. Please wait.

Bullets In A Music Box - End Of Reason Tab

833 views 3 this week
2 commentsread comments
1 2 3 4 5
excellent!
x 2
add to favorites
launch autoscroll
font size
0
reset
how to read this tab
guitar tuner
Tab Pro tools
  • play this tab
  • loop segment
  • change instrument
  • show fretboard
  • metronome
Autoscroll
slow
fast
+/-
esc
set tempo
stop
Contributor
ASKING ALEXANDRIA
RECKLESS & RELENTLESS
BULLETS IN A MUSIC BOX (END OF REASON)
DROP D


sounds like 2 guitars at the start so i did both... if theres only one then
 you can here another part in the backround (or other headphone) w/e i did
 them anyway... 
IV'E LABELED EACH PART A LETTER.. ILL SAY 'PLAY PART #' IF
 THE PART IS REPEATED. ITS EASIER FOR ME AND FOR YOU AS THE TAB WONT BE SO DAMN LONG.

(part 1 guitar 1)
E|-----------------------------------------|--------------------------------|
B|-----------------------------------------|--------------------------------|
G|-----------------------------------------|--------------------------------|
D|-----------------------------------------|---8-7----7---7h8---------------|
A|-----7--7h8----5--7---7h8----5--7---7h8--|--------------------------------|
D|-0-0--0------0--0---0------0--0---0------|-0------0---0-------------------|
|
|
|
|(part 1 guitar 2)
E|-----------------------------------------|--------------------------------|
B|-----------------------------------------|--------------------------------|
G|-----------------------------------------|--------------------------------|
D|-----------------------------------------|---8-7----4---4h7---------------|
A|----10-10h12---8--10--10h12--8--10--10h12|--------------------------------|
D|-0-0--0------0--0---0------0--0---0------|-0------0---0-------------------|






(PART 2 guitar 1)
E|-----------------------------------------|--------------------------------|
B|-----------------------------------------|--------------------------------|
G|-----------------------------------------|--------------------------------|
D|-----------------------------------------|---10-8---7---7h8---------------|
A|-----7--7h8----5--7---7h8----5--7---7h8--|--------------------------------|
D|-0-0--0------0--0---0------0--0---0------|-0------0---0-------------------|
|
|
|
|(part 2 guitar 2)
E|-----------------------------------------|--------------------------------|
B|-----------------------------------------|--------------------------------|
G|-----------------------------------------|--------------------------------|
D|-----------------------------------------|---7-8----10---10h12------------|
A|----10-10h12---8--10--10h12--8--10--10h12|--------------------------------|
D|-0-0--0------0--0---0------0--0---0------|-0------0---0-------------------|








(part 3 guitar 1)
E|-----------------------------------------|--------------------------------|
B|-----------------------------------------|--------------------------------|
G|-----------------------------------------|--------------------------------|
D|-----------------------------------------|---8-7----7---7h8---------------|
A|-----7--7h8----5--7---7h8----5--7---7h8--|--------------------------------|
D|-0-0--0------0--0---0------0--0---0------|-0------0---0-------------------|
|
|
|
|(part 3 guitar 2)
E|-----------------------------------------|--------------------------------|
B|-----------------------------------------|--------------------------------|
G|-----------------------------------------|--------------------------------|
D|-----------------------------------------|---8-7----4---4h7---------------|
A|----10-10h12---8--10--10h12--8--10--10h12|--------------------------------|
D|-0-0--0------0--0---0------0--0---0------|-0------0---0-------------------|








(part 4 guitar 1)
E|-----------------------------------------|--------------------------------|
B|-----------------------------------------|--------------------------------|
G|-----------------------------------------|--------------------------------|
D|-----------------------------------------|--------------------------------|
A|-----7--7h8----5--7---7h8----5--7---7h8--|--7h8p7h8p7h8p7h8p7h8p7---------|
D|-0-0--0------0--0---0------0--0---0------|0-------------------------------|
|
|
|
|(part 4 guitar 2)                            Elevens and thriteens
E|-----------------------------------------|--------------------------------|
B|-----------------------------------------|--------------------------------|
G|-----------------------------------------|--------------------------------|
D|-----------------------------------------|--11h13p11h13p11h13p11h13p11h13-|
A|----10-10h12---8--10--10h12--8--10--10h12|--------------------------------|
D|-0-0--0------0--0---0------0--0---0------|0-------------------------------|



PLAY PART 1
PLAY PART 2
PLAY PART 3                BASICALLY PLAY ALL OF THAT TWICE ^^^...
                 ...BUT PLAY THIS INSTEAD OF PART 4 AGAIN:



(PART 5)
(GUITAR 1)(END OF REPEAT)                 (TENS)
E|-------------------------------------------------------------------------|
B|-------------------------------------------------------------------------|
G|-------------------------------------------------------------------------|
D|---------------------------------------------77881010--------------------|
A|-----7--7h8----5--7---7h8----5--7----77881010----------------------------|
D|-0-0--0------0--0---0------0--0---0--------------------------------------|
|
|(PART 5)
|(GUITAR 2) (END OF REPEAT)            (TWELVES, THIRTEENS AND FIFTEENS).
E|-------------------------------------------------------------------------|
B|-------------------------------------------------------------------------|
G|-------------------------------------------------------------------------|
D|-------------------------------------------------121213131515------------|
A|----10-10h12---8--10--10h12--8--10---121213131515------------------------|
D|-0-0--0------0--0---0------0--0---0--------------------------------------|






(PART 6)
(GUITAR 1) (0:36)                                  (ELEVENS)
E|--------------------------------------------------------------------------|
B|-------------------------------11111111----11111111----11111111----11111111
G|-------------------------------X-X-X-X-----X-X-X-X-----X-X-X-X-----X-X-X-X|
D|--8-8-8-8-8-8-7-7-7-7-7-7------8-8-8-8-----8-8-8-8-----8-8-8-8-----8-8-8-8|
A|--8-8-8-8-8-8-7-7-7-7-7-7-------------------------------------------------|
D|--8-8-8-8-8-8-7-7-7-7-7-7-------------------------------------------------|
|(PART 6)
| T H I S    I S   A L L   V E R Y    Q U I C K! ! ! !
|(GUITAR 2) ALSO 0:36 (THIRTEENS AND TENS AND FIFTEENS AND TWELVES)
E|------------------------------------------------------------------------|
B|------------------------------------------------------------------------|
G|--151515151515121212121212----------------------------------------------|
D|--X-X-X-X-X-X-X-X-X-X-X-X-000---------000----------000---------000------|
A|--131313131313101010101010000---------000----------000---------000------|
D|--------------------------000---------000----------000---------000------|






PART 7
(GUITAR 1) 0:43
E|--------------------------------------------------------------------------|
B|-------------------------------11111010----11111111----11111010----11111111
G|-------------------------------X-X-X-X-----X-X-X-X-----X-X-X-X-----X-X-X-X|
D|--8-8-8-8-8-8-7-7-7-7-7-7------8-8-7-7-----8-8-8-8-----8-8-7-7-----8-8-8-8|
A|--8-8-8-8-8-8-7-7-7-7-7-7-------------------------------------------------|
D|--8-8-8-8-8-8-7-7-7-7-7-7-------------------------------------------------|
|
| PART 7
|(GUITAR 2) 0:43 (THIRTEENS AND TENS AND FIFTEENS AND TWELVES)
E|-----------------------------------------------------------------------|
B|-----------------------------------------------------------------------|
G|--151515151515121212121212---------------------------------------------|
D|--X-X-X-X-X-X-X-X-X-X-X-X-000--5p0h3p0000--5p0h3p0000--5p0h3p0000------|
A|--131313131313101010101010000---------000---------000---------000------|
D|--------------------------000---------000---------000---------000------|



PLAY PART 7 AGAIN... 0:50





PART 8
GUITAR 1 (0:57)
E|--------------------------------------------------------------------------|
B|-------------------------------11111010----11111010----11101110-8---------|
G|-------------------------------X-X-X-X-----X-X-X-X-----X-X-X-X--X---------|
D|--8-8-8-8-8-8-7-7-7-7-7-7------8-8-7-7-----8-8-7-7-----8-7-8-7--5---------|
A|--8-8-8-8-8-8-7-7-7-7-7-7-------------------------------------------------|
D|--8-8-8-8-8-8-7-7-7-7-7-7-------------------------------------------------|
|
| PART 8
|(GUITAR 2) (O:57) (THIRTEENS AND TENS AND FIFTEENS AND TWELVES)
E|------------------------------------------------------------------------|
B|------------------------------------------------------------------------|
G|--151515151515121212121212----------------------------------------------|
D|--X-X-X-X-X-X-X-X-X-X-X-X-000---------000----------000---------000------|
A|--131313131313101010101010000---------000----------000---------000------|
D|--------------------------000---------000----------000---------000------|




PLAY PART 1
PLAY PART 2
PLAY PART 3
PLAY PART 5
PLAY PART 6
PLAY PART 7
PLAY PART 6...




PART 9 (1:43
E|--------------------------------------------------------------------------|
B|-------------------------------11111010----11110110----11111010----11111010
G|-------------------------------X-X-X-X-----X-X-X-X-----X-X-X-X-----X-X-X-X|
D|--8-8-8-8-8-8-7-7-7-7-7-7------8-8-7-7-----8-8-7-7-----8-8-7-7-----8-8-7-7|
A|--8-8-8-8-8-8-7-7-7-7-7-7-------------------------------------------------|
D|--8-8-8-8-8-8-7-7-7-7-7-7-------------------------------------------------|
|
| PART 9
|(GUITAR 2) (1:43 (THIRTEENS AND TENS AND FIFTEENS AND TWELVES)
E|------------------------------------------------------------------------|
B|------------------------------------------------------------------------|
G|--151515151515121212121212----------------------------------------------|
D|--X-X-X-X-X-X-X-X-X-X-X-X-000--5p0h3p0000--5p0h3p0-000--5p0h3p0000------|
A|--131313131313101010101010000---------000----------000---------000------|
D|--------------------------000---------000----------000---------000------|






PART 10
(GUITAR 1) (1:50)
E|--------------------------------------------------------------------------|
B|-------------------------------11111111----11111111----11111111----11111111
G|-------------------------------X-X-X-X-----X-X-X-X-----X-X-X-X-----X-X-X-X|
D|-------------------------------8-8-8-8-----8-8-8-8-----8-8-8-8-----8-8-8-8|
A|--7-7h8---7-7h8---7-7h8-10-8-7--------------------------------------------|
D|00------00------00--------------------------------------------------------|
|
|(PART 10) 
|(GUITAR 2) ALSO 1:50) (THIRTEENS AND TENS AND FIFTEENS AND TWELVES)
E|--------------------------------------------------------------------------|
B|--------------------------------------------------------------------------|
G|--10101010101121212121212-------------------------------------------------|
D|--X-X-X-X-X-X-X-X-X-X-X-X---000---------000----------000---------000------|
A|--8-8-8-8-8-8-101010101010--000---------000----------000---------000------|
D|----------------------------000---------000----------000---------000------|






PART 11)
(GUITAR 1) (1:56)
E|--------------------------------------------------------------------------|
B|-------------------------------11111010----11111010----11101110-8---------|
G|-------------------------------X-X-X-X-----X-X-X-X-----X-X-X-X--X---------|
D|-------------------------------8-8-7-7-----8-8-7-7-----8-7-8-7--5---------|
A|--7-7h8---7-7h8---7-7h8-10-8-12-------------------------------------------|
D|00------00------00--------------------------------------------------------|
|
|(PART 11) 
|(GUITAR 2) ALSO 1:56) (THIRTEENS AND TENS AND FIFTEENS AND TWELVES)
E|--------------------------------------------------------------------------|
B|--------------------------------------------------------------------------|
G|--10101010101121212121212-------------------------------------------------|
D|--X-X-X-X-X-X-X-X-X-X-X-X---000---------000----------000---------000------|
A|--8-8-8-8-8-8-101010101010--000---------000----------000---------000------|
D|----------------------------000---------000----------000---------000------|




PLAY PART 1
PLAY PART 2
PLAY PART 3 
PLAY PART 4




(PART 12
GUITAR 1 )  2:22
E|------------------------------------------------------------------------|
B|------------------------------------------------------------------------|
G|------------------------------------------------------------------------|
D|---------------------------000-000-000-000-000-000----------------------|
A|-------------10-8---7-7h8--000-000-000-000-000-000----------------------|
D|-0-0-7-7h8-0------0--------000-000-000-000-000-000----------------------|
|
|
|
|(PART 12
GUITAR 2)  2:22
E|-------------------------------------------------------------------------|
B|-------------------------------------------------------------------------|
G|-------------------------------------------------------------------------|
D|-------------8-7---5-5h7---000-000-000-000-000-000-----------------------|
A|---------------------------000-000-000-000-000-000-----------------------|
D|-0-0-7-7h8-0-----0---------000-000-000-000-000-000-----------------------|

PLAY PART 12 X4 (^THAT 4 TIMES ^)





(PART 13
GUITAR 1 )  2:42
E|-----------------------|-------------------------------------------------|
B|-----------------------|-------------------------------------------------|
G|-----------------------|-------------------------------------------------|
D|-------------8-7---5-3-|-------------------------------------------------|
A|-----7-7h8-------------|-------------10-8---7-7h8------------------------|
D|-0-0-------0-----0-----|-0-0-7-7h8-0------0------------------------------|
|
|
|
|(PART 13
GUITAR 2)  2:42
E|--------------------------|-----------------------------------------------|
B|--------------------------|-----------------------------------------------|
G|--------------------------|-----------------------------------------------|
D|--------------13-11---9-8-|----------8-7---5-5h7--------------------------|
A|-----9-9h11---------------|-----------------------------------------------|
D|-0-0--------0--------0----|-h5p0h5h6-----0--------------------------------|

PLAY PART 13 X3
PLAY FIRST HALF OF PART 13^




(PART 14
GUITAR 1 )  2:58
E|------------------------------------------------------------------------|
B|------------------------------------------------------------------------|
G|------------------------------------------------------------------------|
D|-000000000000000000-h7p0h5p0h3p0h2p0------------------------------------|
A|-000000000000000000-----------------------------------------------------|
D|-000000000000000000-----------------------------------------------------|
|   ***** ***** *****
|
|
|(PART 14
GUITAR 2)  2:58 (C0MES IN ON THIRD TIME)
E|-------------------------------------------------------------------------|
B|-------------------------------------------------------------------------|
G|-------------------------------------------------------------------------|
D|-0-----0-----0------------------------------------------------------------|
A|-0-----0-----0------------------------------------------------------------|
D|-0-----0-----0------------------------------------------------------------|
   *     *     *
PLAY PART 14 X4







PART 15!
GUITAR 1 )  3:13
E|------------------------------------------------------------------------|
B|------------------------------------------------------------------------|
G|------------------------------------------------------------------------|
D|-000000000000000000-h7p0h5p0h3p0h2p0------------------------------------|
A|-000000000000000000-----------------------------------------------------|
D|-000000000000000000-----------------------------------------------------|
|   ***** ***** *****
|
|
|(PART 15
GUITAR 2)  3:13 
E|--------------------------------------------------------------------------|
B|--------------------------------------------------------------------------|
G|--------------------------------------------------------------------------|
D|-000000000000000000-h10p0h8p0---------------------------------------------|
A|-000000000000000000----------h7h8-----------------------------------------|
D|-000000000000000000-------------------------------------------------------|
    ***** ***** *****            






PART 16!!!!!
GUITAR 1 )  3:28  &  3:32                  FIRST ENDING  SECOND ENDING
E|----------------------------------------|-------------|-------------------|
B|----------------------------------------|-------------|-------------------|
G|----------------------------------------|-------------|-------------------|
D|--h7p0h5p0h3p0-h7p0h5p0h3p0-h8p0h7p0h5p0|-h8p0h7p0h5p0|-h7p0h5p0h3p0------|
A|----------------------------------------|-------------|-------------------|
D|----------------------------------------|-------------|-------------------|
|   
|
|
|(PART 16
GUITAR 2)  3:28                                 FIRST ENDING     SECOND END.
E|---------------------------------------------|----------------|-----------|
B|---------------------------------------------|----------------|-----------|
G|---------------------------------------------|----------------|-----------|
D|-h10p0h8p0-----h10p0h8p0-----h12p0h10p0------|-h12p0h10p0-----|-h10-8-----|
A|----------h7h8----------h7h8-----------h8h10-|-----------h8h10|------7h8--|
D|---------------------------------------------|----------------|-----------|


PLAY PART 12 BUT WITH LESS 0'S AT THE END! 
THAT'S ITT 
=| BAM
comments
We did not receive enough feedback on this tab! Please rate:
print report bad tab
1 2 3 4 5
2 comments total.
0 reply
iplayguitar :) wrote on January 30 2012, 12:58 am

fuk. nice man not exactlly 100% but good

0 reply
deathfromala wrote on February 1 2012, 04:32 am

now that i think about it it dont think theres a 0 bettween the 7 7h8 at the start.. =|

I want to post or [tab]
guest
You may want to rate the tab now too:
select rating
Please do not post tabs as comments. Select "correction" instead!