Oops, an error
Loading. Please wait.

Bullets In A Music Box Tab

version 1
version 1

Whole song

1,735 views 1 this week
no commentswrite comment
1 2 3 4 5
2 more votes to show rating
add to favorites
launch autoscroll
font size
0
reset
how to read this tab
guitar tuner
Autoscroll
slow
fast
+/-
esc
set tempo
stop
Help us to improve Ultimate-Guitar.com Take our survey!
×
Author
Tuning
D G C F A D
ok this is my first tab and I know this is not 100% right, but this is good, questions 
or comments please send to my msn: sad_lovekandy@hotmail.com

Intro
  e|-----------------------------------------------------|
  B|-----------------------------------------------------|
  G|-----------------------------------------------------|
  D|-----------------------------------------------------|
  A|---7-78h5--7-78h5--7-78h10-87h8h5/slide--------------|
  E|-00-0----00-0----00-0-----0--------------------------|
p.m  .. .    .. .    .. .     .

  e|-----------------------------------------------------|
  B|-----------------------------------------------------|
  G|-----------------------------------------------------|
  D|-----------------------------------------------------|
  A|---7-78h5--7-78h5--7-78h10-85h7h8/slide--------------|
  E|-00-0----00-0----00-0-----0--------------------------|
p.m  .. .    .. .    .. .     .

  e|-----------------------------------------------------|
  B|-----------------------------------------------------|
  G|-----------------------------------------------------|
  D|-----------------------------------------------------|
  A|---7-78h5--7-78h5--7-78h10-87h8h5/slide--------------|
  E|-00-0----00-0----00-0-----0--------------------------|
p.m  .. .    .. .    .. .     .

  e|-----------------------------------------------------|
  B|-----------------------------------------------------|
  G|-----------------------------------------------------|
  D|-----------------------------------------------------|
  A|---7-78h5--7-78h5--7-78-tp810810---------------------|
  E|-00-0----00-0----00-0--0-----------------------------|
p.m  .. .    .. .    .. .  .
verse 1
  e|-----------------------------------------------------|
  B|-----------------------------------------------------|
  G|-----------------------------------------------------|
  D|-----------------------------------------------------|
  A|---7-78h5--7-78h5--7-78h10-87h8h5/slide--------------|
  E|-00-0----00-0----00-0-----0--------------------------|
pm   .. .    .. .    .. .     .

  e|-----------------------------------------------------|
  B|-----------------------------------------------------|
  G|-----------------------------------------------------|
  D|-----------------------------------------------------|
  A|---7-78h5--7-78h5--7-78h10-85h7h8/slide--------------|
  E|-00-0----00-0----00-0-----0--------------------------|
pm   .. .    .. .    .. .     .

  e|-----------------------------------------------------|
  B|-----------------------------------------------------|
  G|-----------------------------------------------------|
  D|-----------------------------------------------------|
  A|---7-78h5--7-78h5--7-78h10-87h8h5/slide--------------|
  E|-00-0----00-0----00-0-----0--------------------------|
pm   .. .    .. .    .. .     .

  e|-----------------------------------------------------|
  B|-----------------------------------------------------|
  G|-----------------------------------------------------|
  D|--------------------------(tremolo here)-------------|
  A|---7-78h5--7-78h5--7-788810101011111112121214141415*-|
  E|-00-0----00-0----00-0----(ten)-(eleven)(twelve)------|
pm   .. .    .. .    .. .
chorus
  e|-----------------------------------------------------------------------|
  B|-----------------------------------------------------------------------|
  G|-----------------------------------------------------------------------|
  D|-33333333-55555555---(twelve)-(twelve n' ten)---(tremolo)--------------|
  A|-33333333-55555555-00-12////---121212101010//--12////---121212101010//-|
  E|-33333333-55555555-00--------00--------------00-------00---------------|
p.m                    ..        ..              ..       .. play four times

BACK TO VERSE 1
BACK TO CHORUS
verse 2
  e|---------------------------------------------------------------|
  B|---------------------------------------------------------------|
  G|--------------------------------(twelve)-----------------------|
  D|---------------------------------12///--12///--12///--12///----|
  A|---7-7h8--7-7h8--7-7h8-10-8-7--00-----00-----00-----00---------|
  E|-00-0---00-0---00-0---0--0-0-0-00-----00-----00-----00---------|
p.m  .. .   .. .   .. .   .  . . . ..     ..     ..     .. play two times

  e|-----------------------------------------------------------|
  B|-----------------------------------------------------------|
  G|-----------------------------------------------------------|
  D|-----------------------------------------------------------|
  A|---7-78h5--7-78h5--7-78h10-87h8h5/slide--------------|-----|
  E|-00-0----00-0----00-0-----0--------------------------|  ---|
p.m  .. .    .. .    .. .     .                              |
                                                              play x2
  e|-----------------------------------------------------------|
  B|-----------------------------------------------------|  ---|
  G|-----------------------------------------------------|  ---|
  D|-----------------------------------------------------|  ---|
  A|---7-78h5--7-78h5--7-78h10-85h7h8/slide--------------|-----|
  E|-00-0----00-0----00-0-----0--------------------------------|
p.m  .. .    .. .    .. .     .

bridge
  e|---------------------------------------------------------|
  B|---------------------------------------------------------|
  G|---------------------------------------------------------|
  D|---------------------------------------------------------|
  A|---7-7h8-10-8-7h8h5--00000-00000-00000-00000-00000-00000-|
  E|-00-0---0--0---0-----00000-00000-00000-00000-00000-00000-|
p.m  .. .   .  .   .     ..... ..... ..... ..... ..... ..... play four times

  e|-----------------------------------------|
  B|-----------------------------------------|
  G|-----------------------------------------|
  D|-----------------------------------------|
  A|---7-7h8-10-8-7h8h5--9-9h10-12-10-9h10h7-|
  E|-00-0---0--0---0---00-0----0--0--0-0-----|
p.m  .. .   .  .   .   .. .    .  .  . . play four times

ending
  e|-------------------------|
  B|-------------------------|
  G|-------------------------|
  D|-------------------------|---x8
  A|-000000000000000-807050--|
  E|-000000000000000---------|
p.m  ............... (listen for the rhytm)

  e|------------------------------------------------------------|
  B|------------------------------------------------------------|
  G|------------------------------------------------------------|
  D|-807050807050100907012010090100907080705080705010907070503*-|
  A|------------------------------------------------------------|
  E|------------------------------------------------------------|

  e|-------------------------------------------|
  B|-------------------------------------------|
  G|-------------------------------------------|
  D|-------------------------------------------|
  A|---9-9h10-12-10-9-10h7-00000-00000-00000---|
  E|-00-0----0--0--0-0-----00000-00000-00000---|
p.m  .. .    .  .  . .     ..... ..... .....





xD By:JavithOw
Suggest correction
Give kudos to tab author, rate the tab!
1 2 3 4 5
comments
print report bad tab
guest
You may want to rate the tab now too:
select rating
Wanna post a correction for this tab? Suggest correction