Oops, an error
Loading. Please wait.

Closure Bass Tab

version 1
version 1

Whole song

Interactive

10,739 views 15 this week
no commentswrite comment
1 2 3 4 5
accurate
x 4
add to favorites
launch autoscroll
font size
0
reset
guitar tuner
Tab Pro tools
  • play this tab
  • loop segment
  • change instrument
  • show fretboard
  • metronome
×
Best way to learn
"Closure"
Autoscroll
slow
fast
+/-
esc
set tempo
stop
Contributor
Difficulty
Tuning
intermediate
C G C F A D
Asking Alexandria: Closure
Enjoy >:D

Drop C-FCGC



0:13-0:27
|--------------------------------------------------------------|
|--------------------------------------------------------------|
|--------------------------------------------------------------|
|--0--0-0---0-0---0-0-0-0---0-0----0--0-0---0-0---0-0-0--0-0-0-|
  
|-----------------------------------------------------------------|
|-----------------------------------------------------------------|
|-------------------------------------------------7-8-7--------10-|
|--0--0-0---0-0---0-0-0-0---0-0----0--0-0---0-0---------10-7-8----|
    

|--------------------------------------------------------------|
|--------------------------------------------------------------|
|--------------------------------------------------------------|
|--0--0-0---0-0---0-0-0-0---0-0----0--0-0---0-0---0-0-0--0-0-0-|


|-------------------------------------------------------|
|-------------------------------------------------------|
|-------------------------------------------------------|
|--0--0-0---0-0---0-0-0-0---0-0----0---------0----0-0-0-|


|--------------------------------------------------------------|
|--------------------------------------------------------------|
|--------------------------------------------------------------|
|--0--0-0---0-0---0-0-0-0---0-0----0--0-0---0-0---0-0-0--0-0-0-| 

0:27-0:39
|----------------------------------------------------------------|
|----------------------------------------------------------------|
|------------------------------------------------7-8-7--------10-|
|--0--0-0---0-0---0-0-0-0---0-0----0--0-0---0-0--------10-7-8----|

  
|--------------------------------------------------------------|
|--------------------------------------------------------------|
|--------------------------------------------------------------|
|--0--0-0---0-0---0-0-0-0---0-0----0--0-0---0-0---0-0-0--0-0-0-|


|--------------------------------------|
|--------------------------------------|
|--------------------------------------|
|--0--0-0---0-0---0-0-0-0---0-0----0---|

0:53-1:12
|---------------------------------------------------------------------------|
|---------------------------------------------------------------------------|
|---------------------------------------------------------------------------|
|--0-0---0---0-0----0-0---0---0-0---0---0-0-8--8-8--8-8-10--10--10-10-10----|
                                                                          X4
1:12-1:14
|----------------------|
|----------------------|
|----------------------|
|-0-0-0-0---0-0-0-0----|

1:15-1:34
|---------------------------------------------------------------------------|
|---------------------------------------------------------------------------|
|--5-5-5-5---5-5--5-5----5-5-5-5---5-5--5-5--5-5-----3-3-3-3---7-7--7-7--7-7|
|---------------------------------------------------------------------------|


|----------------------------------------------------------------|
|----------------------------------------------------------------|
|---8--8--8--8----8--8---8--8---8--8-----3-3-3-3---7-7--7-7--7-7-|
|----------------------------------------------------------------|


|--------------------------------------------|
|--------------------------------------------|
|--------------------------------------------|
|---5------3-----7-----8------3-----7-----0--|

1:37-2:07/Pause after every measure for 2 seconds
|----------------------------------------------------------------|
|----------------------------------------------------------------|
|----------------------------------------------------------------|
|-0-0---0-0-0-0---0-0---0-0--0-0-0-0---0-0---0-0---0-0-0-0---0-0-|
  

|----------------------------------------------------------------|
|----------------------------------------------------------------|
|----------------------------------------------------------------|
|-0-0---0-0-0-0---0-0---0-0--0-0---0-0-0---0-0---0-0-0-0---0-0---|


|---------------------------------------------------------------------|
|---------------------------------------------------------------------|
|---------------------------------------------------------------------|
|-0-0~---0-0-0-0~---0-0~---0-0~--0-0~---1-1-1---0-0---0-0-0-0---0-0---|
 

|----------------------------------------------------------------|
|----------------------------------------------------------------|
|----------------------------------------------------------------|
|-0-0---0-0-0-0---0-0---0-0--0-0---1-1-1---0-0---0-0-0-0---0-0---|


|----------------------------------------|
|----------------------------------------|
|----------------------------------------|
|----------------------1-1--1-1--1-1--0--|

Let the techno do its magic!!! 

2:49-3:10
|---------------------------------------|
|---------------------------------------|
|---------------------------------------|
|--0----------10----------8---------8---|
                                         X2
3:10-3:32
|----------------------------------------------------------|
|----------------------------------------------------------|
|--5-5----5--5--5--5--5--5--5-----7-7---7--7--7--7--7--7---|
|----------------------------------------------------------|


|------------------------------------------------------------|
|------------------------------------------------------------|
|--8--8----8---8---8---8---8---8---8------8--8----8---8---8--|
|------------------------------------------------------------|
                                                                           

|--------|
|--------|
|--------|
|-777777-|
                X2
3:32-3:34
|------------|
|------------|
|------------|
|-0~~~~~~~~--|

3:34-End
|---------------------------------------------|
|---------------------------------------------|
|---------------------------------------------|
|--0-0-0-0-0-0-0-0-----0-0--0-0-0---0--0----0-|


|----------------------------------|
|----------------------------------|
|----------------------------------|
|-0-0-0-0-0-0-0-0---0-0-0---0----0-| 
                    

|---------------------------------------------|
|---------------------------------------------|
|---------------------------------------------|
|--0-0-0-0-0-0-0-0-----0-0--0-0-0---0--0----0-|


|----------------------------------|
|----------------------------------|
|----------------------------------|
|-0-0-0-0-0-0-0-0---0-0-0---0----0-| 
  

|-----------------------------------------------------|
|-----------------------------------------------------|
|-----------------------------------------------------|
|-0-0---0-0---1-1-1-1-1-1---0-0---0-0---1-1-1---1-1-1-|


|-----------------------------------------------------|
|-----------------------------------------------------|
|-----------------------------------------------------|
|-0-0---0-0---1-1-1-1-1-1---0-0---0-0---1-1-1---1-1-1-|



These tabs aren't really that hard.
but in some parts you need to have speed.
Send me feedback on what you think of them.  
comments
print report bad tab
I want to post or [tab]
guest
You may want to rate the tab now too:
select rating
Please do not post tabs as comments. Select "correction" instead!