Oops, an error
Loading. Please wait.

Dead Tab

version 1
version 1

Whole song

Interactive

1,303 views 30 this week
no commentswrite comment
1 2 3 4 5
worth learning
x 2
add to favorites
launch autoscroll
font size
0
reset
how to read this tab
guitar tuner
Tab Pro tools
  • play this tab
  • loop segment
  • change instrument
  • show fretboard
  • metronome
Autoscroll
slow
fast
+/-
esc
set tempo
stop
Contributor
Difficulty
Tuning
intermediate
B F# B E G# C#
* = palm mute
/ = slide
v = vibrato
b = bend

Gtr 1 = Lead (Ben)
Gtr 2 = Rhythm (Cameron)

Drop B tuning

Intro
0:03-0:13
C#|----------------------------------------------------------|
G#|----------------------------------------------------------|
E|-----------------------------------------------------------|
B|-----------------------------------------------------------|
F#|----------------------------------------------------------|
B|-0-3-1-0-4-0-1-3-0-3-1-0-4-0-1-3-0-3-1-0-4-0-1-3-0-3-1-0-1b|

0:13-0:23
C#|----------------------------------------------------------|
G#|----------------------------------------------------------|
E|-----------------------------------------------------------|
B|-----------------------------------------------------------|
F#|----------------------------------------------------------|
B|-0-3-1-0-4-0-1-3-0-3-1-0-4-0-1-3-0-3-1-0-4-0-1-3-0-3-1-0-1b|
   * * * * * * * * * * * * * * * * * * * * * * * * * * * *



0:23-0:43
Repeat twice
C#|------------------------------------------------------------------|
G#|------------------------------------------------------------------|
E|-------------------------------------------------------------------|
B|-------------------------------------------------------------------|
F#|------------------------------------------------------------------|
B|-1p0-0-1p0-0-1p0-1p0-0-1p0-0-8888-1p0-0-1p0-0-1p0-1p0-0-1p0-0-7777-|


0:43-0:49
C#|------------------------------------------------------------|
G#|------------------------------------------------------------|
E|-------------------------------------------------------------|
B|-------------------------------------------------------------|
F#|00-0000-00-00-0000------------------------------------------|
B|-11-1111-11-11-1111-----12bv----------------------------------|
   ** **** ** ** ****
on the 12th, both bend and vibrato


0:49-0:54
C#|------------------------------------------------------------|
G#|------------------------------------------------------------|
E|-------------------------------------------------------------|
B|-------------------------------------------------------------|
F#|------------------------------------------------------------|
B|-1p0-0-1p0-0-1p0-1p0-0-1p0-0-8888----------------------------|



Gtr 2 Chorus: 0:57-1:19
This plays twice
C#|----------------------------------------------------------|
G#|----------------------------------------------------------|
E|-----------------------------------------------------------|
B|-----------------------------------------------------------|
F#|----------------------------------------------------------|
B|-0000000000-00000-0000010101010-8888888888-88888-8887777555|


Gtr 1 Chorus Lead Melody: 0:57-1:19
C#|----------------------------------------------------------------------------------|
G#|----------------------------------------------------------------------------------|
E|-----------------------------------------------------------------------------------|
B|-10-12~-10-12~-12/14~-12~-15~-17b~-15~-15/10~-12~----------------------------------|
F#|----------------------------------------------------------------------------------|
B|-----------------------------------------------------------------------------------|
repeat once, and let the last 12 ring out the 2nd time

1:19-1:24
C#|----------------------------------------------------------|
G#|----------------------------------------------------------|
E|-----------------------------------------------------------|
B|-----------------------------------------------------------|
F#|----------------------------------------------------------|
B|-0-3-1-0-4-0-1-3-0-3-1-0-4-0-1-3-0-3-1-0-4-0-1-3-0-3-1-0-1b|



1:24-1:29
C#|----------------------------------------------------------|
G#|----------------------------------------------------------|
E|-----------------------------------------------------------|
B|-----------------------------------------------------------|
F#|----------------------------------------------------------|
B|-0-3-1-0-4-0-1-3-0-3-1-0-4-0-1-3-0-3-1-0-4-0-1-3-0-3-1-0-1b|
   * * * * * * * * * * * * * * * * * * * * * * * * * * * *


1:29-1:40
Play the opens fast
C#|----------------------------------------------------------------|
G#|----------------------------------------------------------4444--|
E|-----------------------------------------------------------3333--|
B|-----------------------------------------------------------------|
F#|----------------------------------------------------------------|
B|-0-3-1-0-4-3-1-3-0-3-1-0-4-3-1-3-0-3-1-0-4-3-1-3-0-3-1-0---------|


1:40
C#|----------------------------------------------------------|
G#|----------------------------------------------------------|
E|-----------------------------------------------------------|
B|-----------------------------------------------------------|
F#|----------------------------------------------------------|
B|--0000-00-000-00-0-3-1-0-1b--------------------------------|
    **** ** *** ** * * * *


1:43-2:03
This plays 4 times
C#|----------------------------------------------------------|
G#|----------------------------------------------------------|
E|-----------------------------------------------------------|
B|-----------------------------------------------------------|
F#|000000000-000-00-00-000-00-00-00--------------------------|
B|-000000000-000-00-00-000-00-00-00--0-3-1-0--1b-------------|
   ********* *** ** ** *** ** ** **  * * * *


2:04-2:24 REPEAT CHORUS




2:24-2:47 Bens Lead Melody/Solo
Gtr 1
C#|---------------------------------------------------------------------------------|
G#|---15-17-17b-----17-17b----15-14-17----------------------------------------------|
E|-14~----------14~--------14~---------14~------------------------------------------|
B|----------------------------------------------------------------------------------|
F#|---------------------------------------------------------------------------------|
B|----------------------------------------------------------------------------------|

HARMONY
C#|---------------------------------------------------------------------------------|
G#|---20-22-22b-----22-22b----20-19-22----------------------------------------------|
E|-19~----------19~--------19~---------19~------------------------------------------|
B|----------------------------------------------------------------------------------|
F#|---------------------------------------------------------------------------------|
B|----------------------------------------------------------------------------------|





2:57-3:09
For strumming pattern, just follow the drums
C#|----------------------------------------------------------|
G#|----------------------------------------------------------|
E|---7/-10/6/-3----------------------------------------------|
B|---x--x--x--x----------------------------------------------|
F#|--5/-8/-4/-1----------------------------------------------|
B|-----------------------------------------------------------|

3
x only gets played during the first half part of this part
1


3:11
C#|----------------------------------------------------------|
G#|----------------------------------------------------------|
E|-----------------------------------------------------------|
B|-----------------------------------------------------------|
F#|0000-0-0-00-0000-00-0-000-00-00-000000--------------------|
B|-0000-0-0-00-0000-00-0-000-00-00-111111--------------------|
   **** * * ** **** ** * *** ** ** ******
comments
We did not receive enough feedback on this tab! Please rate:
print report bad tab
1 2 3 4 5
I want to post or [tab]
guest
You may want to rate the tab now too:
select rating
Please do not post tabs as comments. Select "correction" instead!