Oops, an error
Loading. Please wait.

Dear Insanity Bass Tab

version 1
version 1

Whole song

Interactive

1,272 views 3 this week
2 commentsread comments
1 2 3 4 5
please rate
add to favorites
launch autoscroll
font size
0
reset
guitar tuner
Tab Pro tools
  • play this tab
  • loop segment
  • change instrument
  • show fretboard
  • metronome
×
Best way to learn
"Dear Insanity"
Autoscroll
slow
fast
+/-
esc
set tempo
stop
Contributor
Difficulty
Tuning
intermediate
C G C F A D
----------------------------------------------------------------------------
                            DEAR INSANITY - Asking Alexandria
----------------------------------------------------------------------------

Tabbed By : Blkblkblk50

Tuning: CGCF

0:00
F|-------------------------------|
C|-------------------------------|
G|----5(x8)---------------3(x8)--| x2
C|-----------8(x8)-5(x8)---------|

0:10
F|------------------------------------------------------------------|
C|------------------------------------------------------------------|
G|----5(x9)------------------------5(x9)-----------------------3(x4)|
C|-----------000-000--8(x8)-5(x8)---------000-000--8(x8)-5(x4)------|

0:19
F|---------------------|
C|---------------------|
G|-------5-------------|
C|-------------rest----|

0:22
F|--------------------------------|
C|-----------------------88-77----|
G|--------------------------------| x2
C|-----0(x24)------88-77----------|

0:32
F|-----------------------------------------|
C|------------------------------------88-77|
G|-----------------------------------------| x2
C|--0-00-0-0---000-000-0-00-0-0--88-77-----|

0:41 Chorus
F|-----------------------------------------|
C|-----------------------------------------|
G|-----5(x16)-8(x16)-3(x16)-1(x8)-0(x8)----|
C|-----------------------------------------|

0:51
F|-----------------------------------------|
C|-----------------------------------------|
G|-----5(x16)-8(x16)-3(x16)-1(x8)-3(x8)----|
C|-----------------------------------------|

1:01
F|----------------------|
C|----------------------|
G|---5------------------|
C|------rest------------|

1:03
F|---------------------------------------------------------------------|
C|-----------------------------3---------------------------------------|
G|---5-55-55-5555-5-4-44-44-034--4-1-11-11-1111-1-0-00-00-000-3-3-5----|
C|---------------------------------------------------------------------|

1:12
F|---------------------------------------------------------------------|
C|-----------------------------3---------------------------------------|
G|---5-55-55-5555-5-4-44-44-034--4-1-11-11-1111-1-0-00-00-000-3-3-5~---|
C|---------------------------------------------------------------------|

1:24 Chorus
F|-----------------------------------------|
C|-----------------------------------------|
G|-----5(x16)-8(x16)-3(x16)-1(x8)-0(x8)----|
C|-----------------------------------------|

1:34
F|-----------------------------------------|
C|-----------------------------------------|
G|-----5(x16)-8(x16)-3(x16)-1(x8)-3(x8)----|
C|-----------------------------------------|

1:44
F|--------------------------------------------------------------------|
C|--------------------------------------------------------------------|
G|--------------------------------------------------------------------|
C|-000~-00~-00~-0000~-000~-00~-00~-000-000~----------x2---------------|

1:53
F|--------------------------------------------------------------------|
C|--------------------------------------------------------------------|
G|--------------------------------------------------------------------|
C|-000-00-00-0000-000-00-00-000-000------------------x2---------------|

2:06-2:12 rest
2:12
F|----------------------------------------|
C|----------------------------------------|
G|----------------------------------------|
C|--0~-let ring---------------------------|

2:17
F|---------------------------------------------------------------------|
C|---------------------------------------------------------------------|
G|---------------------------------------------------------------------|
C|--5(x12)-7(x8)-8(x8)-7(x12)-10(x8)-8(x4)-7(x4)-------x2--------------|

2:39
F|--------------------------------------------------------------------|
C|--------------------------------------------------------------------|
G|--------------------------------------------------------------------|
C|-0000-0000-0-0-0--000-000-0-0--0000-0000-0-0-0--000-000---------x3--|

2:57
F|--------------------------------------------------------------------|
C|--------------------------------------------------------------------|
G|--------------------------------------------------------------------|
C|-0000-0000-0-0-0~--000-000-0-0~--0000-0000-0-0-0~--000-000~---------|

3:39
F|--------------------------------------------------------------------|
C|--------------------------------------------------------------------|
G|--------------------------------------------------------------------|
C|-1111-1111-1-1-1~--111-111-1-1~--1111-1111-1-1-1~--111-111~---------|

| /  slide up
| \  slide down
| h  hammer-on
| p  pull-off
| ~  let ring
| +  harmonic
| x  Mute note
=========================================================================
comments
We did not receive enough feedback on this tab! Please rate:
print report bad tab
1 2 3 4 5
2 comments total.
0 reply
ZZMonroe wrote on August 9 2014, 03:38 am

Does the (x8) and what not mean to play it 8 times?

0 reply
blkblblk50 wrote on July 9 2015, 08:10 pm

yes it does kind sir (I had to make this comment long lol)

I want to post or [tab]
guest
You may want to rate the tab now too:
select rating
Please do not post tabs as comments. Select "correction" instead!