Oops, an error
Loading. Please wait.

Hey There Mr Brooks Bass Tab

version 1
version 1

Whole song

Interactive

2,791 views 3 this week
no commentswrite comment
1 2 3 4 5
2 more votes to show rating
add to favorites
launch autoscroll
font size
0
reset
guitar tuner
Autoscroll
slow
fast
+/-
esc
set tempo
stop
Help us to improve Ultimate-Guitar.com Take our survey!
×
Author
Difficulty
Tuning
novice
D G C F A D
Asking Alexandria - Hey There Mr. Brooks

Intro

G-------------------------------------------|
D-----------------------------7h5-----------| x2
A---------------------------------7--10-10--|
D-00000-00000---00000-00000-0---------------|

G-------------------------------------------|
D----------------------------------77777777-|
A-------------------------------------------|
D-00000~-00000~---00000~-00000~-------------|

G---------------------------------------------------------|
D---------------------------------------------------------|
A---------------------------------12-12-12-12-12-12-12-12-|
D-00000~-00000~---00000~-00000~---------------------------|

G-----------------------------------------|
D-------------------------7h5-------------| x2
A-----------------------------7--10-10----|
D-00-0--00-0-------00-0-------------------|

G----------------------------------------------------|
D----------------------------------------------------|
A-8888888888888888-1010101010101010-1111111111111111-|
D----------------------------------------------------|

G-------------------------------|
D-------------------------------|
A-------------------------------|
D-00-0--00-0---------------00-0-|

G----------------------------------------------------|
D----------------------------------------------------|
A-8888888888888888-1010101010101010-1111111111111111-|
D----------------------------------------------------|

G--------------------------------------|
D--------------------------------------|
A--------------------------------------|
D-00~-0~--00~-0~----------------00~-0~-|

Chorus x2

G---------------------|
D---------------------|
A----7777--1010--8888-|
D---------------------|

G------------------|
D------------------|
A-7777--1010--8888-|
D------------------|

Fill

G--------------------------------|
D--------------------------------|
A--------------------------------|
D-0--12/---00000-00000-0-0-00000-|

Verse 2 x2

G-----------------------------------------------------|
D------------------------------------------7^---10^---|
A-----------------------------------------------------|
D-000-000-0-0--000-000-0-0--000-000-0-0--0----0-------|

G---------------------------------------------------------------------|
D---------------------------------------------------------------------|
A---------------------------------------------------------------------|
D-00000-00000-0-0-00000-00000-00000-0-0-00000-00000-00000-0-0-00000---|

G------------------------------|
D------------------------------|
A-10-10-10-10-10-10-10-10-8888-|
D------------------------------|

Play twice                  First time               Second time

G-------------------------[-------------------------[---------------------|
D-------------------------[-------------------------[-10-10-10-10-12-12---|
A-------------------------[10-10-10-10-8888---------[---------------------|
D-0000~-0000~-00~-0-000~--[-------------------------[---------------------|

Fade in

G---------------------------|
D---------------------------|
A---------------------------|
D-000-000-000-000-000-000-0-|

G-------------------------|
D-------------------------|
A-------------------------|
D-000-000-000-000-000-000-|

G-------------------------------|
D-------------------------------|
A-------------------------------|
D-000~-000~-000~-000~-000~-000~-|

Chorus

G---------------------|
D---------------------|
A----7777--1010--8888-|
D---------------------|

G------------------|
D------------------|
A-7777--1010--8888-|
D------------------|

After chorus
D-------|
A-------|
D-0~~~~-|

G----------------------------------------|
D----------------------------------------|
A----------------------------------------|
D--000---00--222---33--000---00--222--33-|

G-----------------------------------------------------------------|
D-----------------------------------------------------------------| x2
A-----------------------------------------------------------------|
D-0-0-0-0-0-0-0-0-0-0-0-0-0-0-0-0-2-2-2-2-2-2-2-2-7-7-7-3-3-3-3-3-|

G-------|
D-------|
A-------|
D-000---|

Please Rate. Thanks
Hope You Enjoy
Suggest correction
Give kudos to tab author, rate the tab!
1 2 3 4 5
comments
print report bad tab
guest
You may want to rate the tab now too:
select rating
Wanna post a correction for this tab? Suggest correction