Oops, an error
Loading. Please wait.

Hey There Mr Brooks Tab

version 1
version 1

Whole song

Interactive

17,696 views 30 this week
1 commentread comment
1 2 3 4 5
please rate
add to favorites
launch autoscroll
font size
0
reset
how to read this tab
guitar tuner
Autoscroll
slow
fast
+/-
esc
set tempo
stop
Help us to improve Ultimate-Guitar.com Take our survey!
×
Author
Difficulty
Tuning
intermediate
D A D G B E
Song: Hey There Mr. Brooks
Artist: Asking Alexandria

Greatttt song.
Featuring Shawn from Alesana.
:)


Intro pt. 1
E----------------------------------------------------------------------------|
B---------------------------------9--9----------------------------------9--9-|
G---------------------------------12-12--------------------------------12-12-|
D----------------------------7h5----------------------------------7h5--------|
A-00000-00000---00000-00000-0----7-----00000-00000---00000-00000-0----7------|
D-00000-00000---00000-00000-0----------00000-00000---00000-00000-0-----------|
  ..... .....   ..... ..... .          ..... .....   ..... ..... .

Intro pt. 2
E------------------------------------------------------------|
B------------------------------------------------------------|
G---------------------------------14-14-14-14-14-14-14-14----|
D---------------------------------x--x--x--x--x--x--x--x-----|
A-00000~-00000~---00000~-00000~---12-12-12-12-12-12-12-12----|
D-00000~-00000~---00000~-00000~------------------------------|
  .....  .....    .....  .....

E--------------------------------------------------------------|
B--------------------------------------------------------------|
G---------------------------------17-17-17-17-17-17-17-17------|
D---------------------------------x--x--x--x--x--x--x--x-------|
A-00000~-00000~---00000~-00000~---15-15-15-15-15-15-15-15------|
D-00000~-00000~---00000~-00000~--------------------------------|
  .....  .....    .....  .....

Do this twice
E--------------------------------------|
B--------------------------9--9--------|
G--------------------------12-12-------|
D--------------------7h5---------------|
A-00-0--00-0----00-0-----7-------------|
D-00-0--00-0----00-0-------------------|
  .. .  .. .    .. .

E-------------------------------------|
B-------------------------------------|
G-14------17-----13-------------------|
D-x--x16--x--x8--x---x8---------------|
A-12------15-----11-------------------|
D-------------------------------------|

E--------------------------------------------------5h7h8-----|
B---------------------------------------------5h7h8----------|
G---------------------------------------5h7h8----------------|
D--------------5h7h8-5h7h8---------5h7h8---------------------|
A-00-0--00-0----------------00-0-----------------------------|
D-00-0--00-0----------------00-0-----------------------------|
  .. .  .. .                .. .

E-------------------------------------|
B-------------------------------------|
G-14------17-----13-------------------|
D-x--x16--x--x8--x---x8---------------|
A-12------15-----11-------------------|
D-------------------------------------|

E-----------------------------------------------------5h7h8---|
B------------------------------------------------5h7h8--------|
G-------------------------------------------5h7h8-------------|
D------------------5h7h8-5h7h8---------5h7h8------------------|
A-00~-0~--00~-0~----------------00~-0~------------------------|
D-00~-0~--00~-0~----------------00~-0~------------------------|
  ..  .   ..  .                 ..  .

Chorus(play the last octave sixteen extra times)
E--------------------------------------------------|
B--------------------------------------------------|
G-10-10-10-10-12-12-12-12-14-14-14-14-15-15-15-15--|
D-x--x--x--x--x--x--x--x--x--x--x--x--x--x--x--x---|
A-8--8--8--8--10-10-10-10-12-12-12-12-13-13-13-13--|
D--------------------------------------------------|

Play the last octave sixteen times
E------------------------------------------------------|
B------------------------------------------------------|
G-10-10-10-10-12-12-12-12-14-14-14-14-15-15-15-15-14---|
D-x--x--x--x--x--x--x--x--x--x--x--x--x--x--x--x--x----|
A-8--8--8--8--10-10-10-10-12-12-12-12-13-13-13-13-12---|
D------------------------------------------------------|

Repeat Chorus

Breakdown
E----------------------------------------|
B----------------------------------------|
G----------------------------------------|
D----------------------------------------|
A-00000-00000-0-0-00000------------------|
D-00000-00000-0-0-00000------------------|
  ..... ..... . . .....

Play this twice
E--------------------------------------------------------|
B--------------------------------------------------------|
G-----------------------------------------(9\)--(13\)----|
D------------------------------------------7\---10\------|
A-000-000-0-0--000-000-0-0--000-000-0-0------------------|
D-000-000-0-0--000-000-0-0--000-000-0-0--0----0----------|
  ... ... . .  ... ... . .  ... ... . .  .    .

E---------------------------------------------------------------------|
B---------------------------------------------------------------------|
G---------------------------------------------------------------------|
D-00000-00000-0-0-00000-00000-00000-0-0-00000-00000-00000-0-0-00000---|
A-00000-00000-0-0-00000-00000-00000-0-0-00000-00000-00000-0-0-00000---|
  ..... ..... . . ..... ..... ..... . . ..... ..... ..... . . .....

E---------------------------------------------------|
B---------------------------------------------------|
G---------------------------------------------------|
D---------------------------------------------------|
A-12-12-12-12-12-12-12-12-10-10-10-10-10-10-10-10---|
D---------------------------------------------------|

Play twice                                         Do this the last time
E-------------------------------------------------[----------------------|
B-------------------------------------------------[----------------------|
G-------------------------------------------------[----------------------|
D-------------------------------------------------[-10-10-10-10-10h12-12-|
A-0000~-0000~-00~-0-000~--12-12-12-12-10-10-10-10-[----------------------|
D-0000~-0000~-00~-0-000~--------------------------[----------------------|
  ....  ....  ..  . ...

E-----------------|
B-----------------|
G-----------------|
D-----------------|
A--000-000--------|
D--000-000--------|
   ... ...

Guitar One(play thrice, but the last two times continue with tripelets)
E----------------------------------------|
B----------------------------------------|
G----------------------------------------|
D----------------------------------------|
A-000-000-000-000-000-000-0--------------|
D-000-000-000-000-000-000-0--------------|
  ... ... ... ... ... ... .

Guitar Two x2
E----------------------------------------------------------------------|
B----------------------------------------------------------------------|
G----------------------------------------------------------------------|
D-----7777---7777----------8888-----------8888--------10-10-10888777---|
A-8888---8888---10-10-10-10----10-10-10-10----10-10-10-----------------|
D----------------------------------------------------------------------|

Chorus

Transition x4
E--------------------------------------------------------------------------|
B--------------------------------------------------------------------------|
G-10-77-10-77-10-7-10-77-10-77-10-7-10-9-9-10-9-9-10-9-12-9-9-10-9-9-------|
D-------------------------------------------------------------------11h12--|
A--------------------------------------------------------------------------|
D--------------------------------------------------------------------------|

E-----------------------------------------------------|
B-----------------------------------------------------|
G-----------------------------------------------------|
D--000---00--222---22--333---33--222--00--------------|
A--000---00--222---22--333---33--222--00--------------|
D--000---00--222---22--333---33--222--00--------------|

Play this twice
E-----------------------------------------------------------------|
B-----------------------------------------------------------------|
G-----------------------------------------------------------------|
D-0-----0-----0---0-----0-----0---2-----2-----2---3-----0-----0---|
A-0-0-0-0-0-0-0-0-0-0-0-0-0-0-0-0-2-2-2-2-2-2-2-2-3-3-3-0-0-0-0-0-|
D-0-0-0-0-0-0-0-0-0-0-0-0-0-0-0-0-2-2-2-2-2-2-2-2-3-3-3-0-0-0-0-0-|
    . .   . .   .   . .   . .   .   . .   . .   .   . .   . .   .

E--------------------------------------|
B--------------------------------------|
G--------------------------------------|
D-000----------------------------------|
A-000----------------------------------|
D-000----------------------------------|

Really creepy ending.
I believe it's a piano so I didn't tab anymore out.
Enjoy! :)

-Kim
Suggest correction
Give kudos to tab author, rate the tab!
1 2 3 4 5
comments
print report bad tab
1 comment total.
0 reply
smorl7 303 wrote on September 30 2009, 01:15 am

Good tab man, i tabbed the other version of this and just fixed up some mistakes that you had.

guest
You may want to rate the tab now too:
select rating
Please do not post tabs as comments. Select "correction" instead!