Oops, an error
Loading. Please wait.

Hey There Mr Brooks Bass Tab

version 2
version 2

Whole song

Interactive

290 views 3 this week
1 commentread comment
1 2 3 4 5
please rate
add to favorites
launch autoscroll
font size
0
reset
guitar tuner
Tab Pro tools
  • play this tab
  • loop segment
  • change instrument
  • show fretboard
  • metronome
×
Best way to learn
"Hey There Mr Brooks"
Autoscroll
slow
fast
+/-
esc
set tempo
stop
Contributor
Difficulty
Tuning
intermediate
D A D G B E
This is my first time posting a tab so sorry if it looks confusing. I did this
whole song by ear so there might be a few minor errors. You can contact me at
ShadowForce756@yahoo.com.
Intro

G ------------------------------------------|
D -----------------------------------5-5----|
A -------------------------------875--------|
D -0000000-000000-000000-0000000---------x2-|

G -------------------------------------------------------------------------|
D -------------------------------------------------------------------------|
A -----------------------------11111111---------------------------55555555-|
D -0000000-000000-000000-000000--------000000-000000-000000-000000---------|

Verse

G--------------------------------------------|
D ------------------5-5------------------5-5-|
A ---------------875------------------875----|
D -00-0-00-0-00-0-------00-0-00-0-00-0-------|

G ---------------------------------------------------------------|
D ---------------------------------------------------------------|
A ---------------------------------------------------------------|Elevens not 1's
D -8888888888888888-10101010101010101010101010-11111111111111111-|

2nd time

G ----------------|
D ----------------|
A ----------------|
D -00-0-00-0-00-0-|

Chorus

G ---------------------------------------------------------|
D ---------------------------------------------------------|
A ---------------------------------------------------------|
D -00000000000000000000-888888888888888-7777777777777-x2-0-|

Bridge

G----------------------------------|
D----------------------------------|
A --------------------------8-10---|
D -000-000-0-0-000-000-0-0-0-0-----|x2

G -----------------------------------------------------------|
D -----------------------------------------------------------|
A ---------------------------------------88888888-77777777---|
D 0000-0000-0-0-00000-0000-0000-0-0-00000--------------------|x2

G ---------------------------------------------------------------|
D ---------------------------------------------------------------|
A -------------------8888-7777------------------1212121213131313-|
D 0000-0000-0-0-00000---------0000-0000-0-0-0000-----------------|

G ---------------------------------------------------------------------------|
D ---------------------------------------------------------------------------|
A ---------------------------------------------------------------------------|
D 000-000-000-000-000-000-0--000-000-000-000-000-000-000-000-000-000-000-000-|

Back To Chorus

Break

Outro

G -------------------------------------------------------------|
D -------------------------------------------------------------|
A -------------------------------------------------------------|
D -000-00-222-00-000-x2 0000000000000002222222233311111-x2-000-|
comments
We did not receive enough feedback on this tab! Please rate:
print report bad tab
1 2 3 4 5
1 comment total.
0 reply
DarknessWolf15 wrote on September 17 2013, 09:33 pm

The second part of the first verse is suppose to be

A 888888888888888 10101010101010101010 1111111111.

I want to post or [tab]
guest
You may want to rate the tab now too:
select rating
Please do not post tabs as comments. Select "correction" instead!