Oops, an error
Loading. Please wait.

Hey There Mr Brooks Tab

version 2
version 2

Whole song

Interactive

27,237 views 18 this week
5 commentsread comments
1 2 3 4 5
excellent!
x 17
add to favorites
launch autoscroll
font size
0
reset
how to read this tab
guitar tuner
Autoscroll
slow
fast
+/-
esc
set tempo
stop
Help us to improve Ultimate-Guitar.com Take our survey!
×
Author
smorl7 779
This is an aewsome song off Asking Alexandria's new album Stand Up and Scream. The other
of this by schecteryes is good but it has a few bits wrong so I tabbed this based off
one. Full credit to schecteryes for working it out. Please rate and comment.

Drop D

Intro
E-------------------------------------------|
B----------------------------------9--9-----|
G----------------------------------12-12----|
D-----------------------------7h5-----------| x2
A-00000-00000---00000-00000-0-----7---------|
D-00000-00000---00000-00000-0---------------|
  ..... .....   ..... ..... .

E------------------------------------------------------------|
B------------------------------------------------------------|
G---------------------------------10-10-10-10-10-10-10-10----|
D---------------------------------x--x--x--x--x--x--x--x-----|
A-00000~-00000~---00000~-00000~---8--8--8--8--8--8--8--8-----|
D-00000~-00000~---00000~-00000~------------------------------|
  .....  .....    .....  .....

E--------------------------------------------------------------|
B--------------------------------------------------------------|
G---------------------------------14-14-14-14-14-14-14-14------|
D---------------------------------x--x--x--x--x--x--x--x-------|
A-00000~-00000~---00000~-00000~---12-12-12-12-12-12-12-12------|
D-00000~-00000~---00000~-00000~--------------------------------|
  .....  .....    .....  .....

E-----------------------------------------|
B-----------(sick ---------------9--9-----|
G------------drum----------------12-12----|
D------------fill)--------7h5-------------| x2
A-00-0--00-0-------00-0-------7-----------|
D-00-0--00-0-------00-0-------------------|
  .. .  .. .       .. .

E-------------------------------------|
B-------------------------------------|
G-10------12-----13-------------------|
D-x--x16--x--x8--x---x8---------------|
A-8-------10-----11-------------------|
D-------------------------------------|

E--------------------------------------------------5h7h8-----|
B--------------------------------------------5h7h8-----------|
G--------------------------------------5h7h8-----------------|
D-------------5h7h8-5h7h8--------5h7h8-----------------------|
A-00-0--00-0---------------00-0------------------------------|
D-00-0--00-0---------------00-0------------------------------|
  .. .  .. .               .. .

E-------------------------------------|
B-------------------------------------|
G-10------12-----13-------------------|
D-x--x16--x--x8--x---x8---------------|
A-8-------10-----11-------------------|
D-------------------------------------|

E-----------------------------------------------------5h7h8---|
B------------------------------------------------5h7h8--------|
G-------------------------------------------5h7h8-------------|
D------------------5h7h8-5h7h8---------5h7h8------------------|
A-00~-0~--00~-0~----------------00~-0~------------------------|
D-00~-0~--00~-0~----------------00~-0~------------------------|
  ..  .   ..  .                 ..  .

Chorus x2
E-------------------------------------------------|
B-------------------------------------------------|
G-10-----12-----14-----15-----17------------------|
D-x--x4--x--x4--x--x4--x--x4--x--x16--------------|
A-8------10-----12-----13-----15------------------|
D-------------------------------------------------|

E-------------------------------------------------|
B-------------------------------------------------|
G-10-----12-----14-----15-----14------------------|
D-x--x4--x--x4--x--x4--x--x4--x--x16--------------|
A-8------10-----12-----13-----12------------------|
D-------------------------------------------------|

Fill
E----------------------------------------|
B----------------------------------------|
G----------------------------------------|
D----------------------------------------|
A-00000-00000-0-0-00000------------------|
D-00000-00000-0-0-00000------------------|
  ..... ..... . . .....

Verse 2 x2
E--------------------------------------------------------|
B--------------------------------------------------------|
G------------------------------------------9\---12\------|
D------------------------------------------7\---10\------|
A-000-000-0-0--000-000-0-0--000-000-0-0------------------|
D-000-000-0-0--000-000-0-0--000-000-0-0--0----0----------|
  ... ... . .  ... ... . .  ... ... . .  .    .

E---------------------------------------------------------------------|
B---------------------------------------------------------------------|
G---------------------------------------------------------------------|
D---------------------------------------------------------------------|
A-00000-00000-0-0-00000-00000-00000-0-0-00000-00000-00000-0-0-00000---|
D-00000-00000-0-0-00000-00000-00000-0-0-00000-00000-00000-0-0-00000---|
  ..... ..... . . ..... ..... ..... . . ..... ..... ..... . . .....

E---------------------------------------------------|
B---------------------------------------------------|
G---------------------------------------------------|
D---------------------------------------------------|
A-12-12-12-12-12-12-12-12-10-10-10-10-10-10-10-10---|
D---------------------------------------------------|

Play twice                  First time               Second time
E-------------------------[------------------------[----------------------|
B-------------------------[------------------------[----------------------|
G-------------------------[------------------------[----------------------|
D-------------------------[------------------------[-10-10-10-10-10h12-12-|
A-0000~-0000~-00~-0-000~--[12-12-12-12-10-10-10-10-[----------------------|
D-0000~-0000~-00~-0-000~--[------------------------[----------------------|
  ....  ....  ..  . ...

Fade in
E-----------------|
B-----------------|
G-----------------|
D-----------------|
A--000-000--------|
D--000-000--------|
   ... ...

Guitar 1
E----------------------------------------|
B----------------------------------------|
G----------------------------------------|
D----------------------------------------|
A-000-000-000-000-000-000-0--------------|
D-000-000-000-000-000-000-0--------------|
  ... ... ... ... ... ... .

Guitar Two x2
E----------------------------------------------------------------------|
B----------------------------------------------------------------------|
G----------------------------------------------------------------------|
D----------------------------------------------------------------------|
A-88888888---1212121212121212---88888888---1212121212121212------------|
D----------------------------------------------------------------------|

E----------------------------------------------------------------------|
B----------------------------------------------------------------------|
G----------------------------------------------------------------------|
D------------------------------------------------10101010-8888-7777----|
A-1010101010101010---1313131313131313---10101010-----------------------|
D----------------------------------------------------------------------|

Repeat Chorus

After chorus
D--000~-|
A--000~-|
D--000~-|

Clean x4
E--------------------------------------------------------------------------|
B--------------------------------------------------------------------------|
G-10-------10-------10-----x2--10-------10-------10----12-------10---------|
D----12-12----12-12----12---------14-14----14-14----14----14-14----14-14-11|
A--------------------------------------------------------------------------|
D--------------------------------------------------------------------------|

E-----------------------------------------------------|
B-----------------------------------------------------|
G-----------------------------------------------------|
D--000---00--222---20--000---00--222--20--------------|
A--000---00--222---20--000---00--222--20--------------|
D--000---00--222---20--000---00--222--20--------------|
   ...   ..  ...   ..  ...   ..  ...  ..

E-----------------------------------------------------------------|
B-----------------------------------------------------------------|
G-----------------------------------------------------------------|
D-0-----0-----0---0-----0-----0---2-----2-----2---3-----2-----2---| x2
A-0-0-0-0-0-0-0-0-0-0-0-0-0-0-0-0-2-2-2-2-2-2-2-2-3-3-3-2-2-2-2-2-|
D-0-0-0-0-0-0-0-0-0-0-0-0-0-0-0-0-2-2-2-2-2-2-2-2-3-3-3-2-2-2-2-2-|
    . .   . .   .   . .   . .   .   . .   . .   .   . .   . .   .

E--------------------------------------|
B--------------------------------------|
G--------------------------------------|
D-000----------------------------------|
A-000----------------------------------|
D-000----------------------------------|
  ...
Suggest correction
What's this?
You can suggest a correction to this tab. Community and Mods will review your correction and vote to approve or reject it.
comments
print report bad tab
5 comments total. Showing first comments.
-1 reply
wtfxsteven 244 wrote on August 28 2010, 11:46 am

your chorus is wrong.

0 reply
smorl7 779 wrote on August 28 2010, 06:58 pm

what is it then?

0 reply
tristen_jones 303 wrote on July 7 2011, 04:05 pm

Yeah, chorus is sorta wrong. You don't go up to the seventeenth fret, you just go back to the 14th fret.
And, you did the left speaker ;P schecteryes did the left haha

guest
You may want to rate the tab now too:
select rating
Please do not post tabs as comments. Select "correction" instead!