Oops, an error
Loading. Please wait.

I Used To Have A Best Friend But Then He Gave Me An Std Bass Tab

version 1
version 1

Whole song

Interactive

6,116 views 6 this week
no commentswrite comment
1 2 3 4 5
excellent!
x 3
add to favorites
launch autoscroll
font size
0
reset
guitar tuner
Autoscroll
slow
fast
+/-
esc
set tempo
stop
Help us to improve Ultimate-Guitar.com Take our survey!
×
Author
Difficulty
Tuning
intermediate
D A D G B E
Artist: Asking Alexandria
Album: Stand Up And Scream
Song: 10. I Used To Have A Best Friend (But Then He Gave Me An STD)
Tabbeb By: Mahino

0:02 - 0:11
G------------------------------------------------------------------------------|
D------------------------------------------------------------------10-8-77-8---|   2x
A----88888---88888---1010101010-77-88---88888---88888---1010101010-----------8-|
D-0-0-----0-0-----8-8----------------0-0-----0-0-----8-8-----------------------|

0:22 - 0:28
G------------------------------------------------------------|
D------------------------------------------------10-8-77-8---|   1x
A----------------------------------------------------------8-|
D-0-0-0-[00000000]-0-0-[00000000]-0-0-[00000000]-------------|
	  32th            32th           32th

0:29 - 0:33
G------------------------------------------------------------------------|
D------------------------------------------------10-8-77-8---8-7-55-7----|   1x
A----------------------------------------------------------8----------7~-|
D-0-0-0-[00000000]-0-0-[00000000]-0-0-[00000000]-------------------------|
	  32th            32th           32th

0:34 - 0:41
G----------------------------------------------------------------|
D----------------------------------------------------------------|   1x
A-----------------------------[88888888888888887777777777777777]-|
D-0-0-000-0-0--0-0-0-00-0-0-0------------------------------------|
					     32th

0:42 - 0:56
G------------------------------------------11/0----------------------|
D-------------------------------------7-10---------------------------|   1x
A---------------------------------6-9--------------------------------|
D-0-0-000-0-0--0-0-0-00-0-0-0-5-8---------------1~1~111~11~11111~111-|

0:57 - 1:06
G----------------------------------------------------------------|
D----------------------------------------------------------------|   1x
A-----------------------------[88888888888888887777777777777777]-|
D-0-0-000-0-0--0-0-0-00-0-0-0------------------------------------|
					     32th

1:11 - 1:17
G-------------------------------------------|
D-------------------------------------------|   1x
A-------------------------------------------|
D-[000-0-0-0-000-000-000-000-0-0-0-000-000]-|
		   32TH

1:18 - 1:21
G----------------------------------------|
D----------------------------------------|   1x
A----------------------------------------|
D-[000-0-0-0-000-000-000-000-0-0-0--0-0]-|
		   32TH

1:22 - 1:41
G----------------------------|
D----------------------------|   2x
A----------------------------|
D-0x16-8x8-5x8-0x16-8x8-10x8-|

1:42 - 2:01
G-----------------------------------------|
D-----------------------------------------|   X4
A-------777-------888---------------------|
D-0-000-----0-000-----0-000-8X5-10X4-12X1-|

2:04 - 2:23
G-------------------------------|
D-------------------------------|   2x
A-------------------------------|
D-0x16-8x8-5x8-0x16-8x8-10x8-0~-|


02:35 - 02:46
G------------------------------------------------|
D------------------------------------------------|   1X
A------------------------------------------------|
D-0000-----000000-00-0-----0000-----000000-00-0~-|

>>>NOT SURE ABOUT THIS NEXT PART, BUT YOU CAN IMPROVISE SOMETHING IF IT SOUNDS WRONG TO YOU!<<<

02:47 - 02:59
G-----------------------------|
D-----------------------------|   1x
A-----------------------------|
D-3x24-2x8-3x28-5x4-3x24-2x16-|

03:00 - 03:23                                                          2nd
G--------------------------------------------------------------------- ----|
D--------------------------------------------------------------------- ----| 2x
A-----------------------3h5------33-------------3h5------33----------- ----|
D-8x16-10x8-15x4-14x4-0-----00-0----0-5-0-5h7-0-----00-0----0-5-0-5h7- -0~-|

*CHINA* *CHINA* *CHINA* *CHINA* *PICK SLIDES* *THIS IS WHERE YOU... DIE!*

03:42 - 03:55
G----------------------------|
D----------------------------|   4x
A----------------------------|
D-0000-000-00000-00-00-00-00-|

03:56 - 04:00
G-----------------------------|
D-----------------------------|   2x
A-----------------------------|
D-0000~000~00000~00~00~00~00~-|

04:01 - END
G----------------------------|
D----------------------------|   2x
A----------------------------|
D-0000-000-00000-00-00-00-00-|

Enjoy and good luck! (:
Suggest correction
What's this?
You can suggest a correction to this tab. Community and Mods will review your correction and vote to approve or reject it.
comments
We did not receive enough feedback on this tab! Please rate:
print report bad tab
1 2 3 4 5
guest
You may want to rate the tab now too:
select rating
Please do not post tabs as comments. Select "correction" instead!