Oops, an error
Loading. Please wait.

I Used To Have A Best Friend But Then He Gave Me An Std Tab

version 1
version 1

Whole song

Interactive

18,641 views 15 this week
no commentswrite comment
1 2 3 4 5
accurate
x 5
add to favorites
launch autoscroll
font size
0
reset
how to read this tab
guitar tuner
Tab Pro tools
  • play this tab
  • loop segment
  • change instrument
  • show fretboard
  • metronome
Autoscroll
slow
fast
+/-
esc
set tempo
stop
Contributor
Difficulty
Tuning
novice
D A D G B E


" = Tremolo Pick
h = Hammer-on
p = Pull-off
* = Palm Mute
/ = Slide Up
\ = Slide Down
~ = Let Note Ring
[]= Pinch Harmonic
tr= Trill Pick


E|----------------------------------------------|
B|----------------------------------------------|
G|-----10----------10---------12-----9-9-10-10--|
D|-----x-(x5)------X-(x5)-----X-(x5)-X-X-X--X---|
A|-0-0-8-------0-0-8----------10-----7-7-8--8---|
D|-0-0---------0-0--------5-5-------------------|




E|--------------------------------------------------|
B|--------------------------------------------------|
G|-----10----------10---------12--------------------|
D|-----x-(x5)------X-(x5)-----X-(x5)---10-8--7-8----|
A|-0-0-8-------0-0-8----------10----------------8---|
D|-0-0---------0-0--------5-5---------------0-------|





E|----------------------------------------------|
B|----------------------------------------------|
G|-----10----------10---------12-----9-9-10-10--|
D|-----x-(x5)------X-(x5)-----X-(x5)-X-X-X--X---|
A|-0-0-8-------0-0-8----------10-----7-7-8--8---|
D|-0-0---------0-0--------5-5-------------------|





E|--------------------------------------------------|
B|--------------------------------------------------|
G|-----10----------10---------12--------------------|
D|-----x-(x5)------X-(x5)-----X-(x5)---10-8--7-8----|
A|-0-0-8-------0-0-8----------10----------------8---|
D|-0-0---------0-0--------5-5---------------0-------|





E|------------------------------------------------|
B|------------------------------------------------|
G|------------------------------------------------|
D|-----------------------------------10-8---7-8---|
A|-0-00--0000-0-00--0000-0-00--0000------------8--|
D|-0-00--0000-0-00--0000-0-00--0000-------0-------|





E|--------------------------------------------------------------|
B|--------------------------------------------------------------|
G|--------------------------------------------------------------|
D|-----------------------------------10-8---7-8---8-7---5-7-----|
A|-0-00--0000-0-00--0000-0-00--0000------------8-----------7----|
D|-0-00--0000-0-00--0000-0-00--0000-------0-----------0---------|




E|-------------------------------------------|
B|-------------------------------------------|
G|-------------------------------------------|
D|-------------------------------------------|
A|-0-0--000--0-0--000-0-0--000-6tr8-5tr7-----|
D|-0-0--000--0-0--000-0-0--000---------------|




E|---------------------------------------------|
B|---------------------------------------------|
G|-----------------------------------5h6--12\--|
D|--------------------------------5h6----------|
A|-0-0--000--0-0--000-0-0--000-5h6-------------|
D|-0-0--000--0-0--000-0-0--000-----------------|





E|-----------------------------------------|
B|-----------------------------------------|
G|-----------------------------------------|
D|-----------------------------------[3b]--|
A|-0-0~--000~--0-0~--000-0-0~--000~--------|
D|-1-1~--111~--1-1~--111-1-1~--111~--------|





E|---------------------------------------------|
B|---------------------------------------------|
G|---------------------------------------------|
D|----------------------------------------0~---|
A|-0-0--000--0-0--000-0-0--000-6tr8-5tr7--0~---|
D|-0-0--000--0-0--000-0-0--000------------0~---|



Ill put the rest up when i get home im at school right now :P





comments
print report bad tab
I want to post or [tab]
guest
You may want to rate the tab now too:
select rating
Please do not post tabs as comments. Select "correction" instead!