Oops, an error
Loading. Please wait.

I Used To Have A Best Friend But Then He Gave Me An Std Tab

version 2
version 2

Whole song

Interactive

24,127 views 51 this week
17 commentsread comments
1 2 3 4 5
excellent!
x 10
add to favorites
launch autoscroll
font size
0
reset
how to read this tab
guitar tuner
Tab Pro tools
  • play this tab
  • loop segment
  • change instrument
  • show fretboard
  • metronome
Autoscroll
slow
fast
+/-
esc
set tempo
stop
Contributor
Difficulty
Tuning
intermediate
D A D G B E
Some parts are still a little dodgy, but this is the best I could figure out.

Drop D

Intro (X2)
e-------------------------------------------------------------------|
B-------------------------------------------------------------------|
G-----10-10-10-10-10---------10-10-10-10-10----------12-12-12-12-12-|
D-0--0-x--x--x--x--x---0-0--0-x--x--x--x--x---8-8--8-x--x--x--x--x--|
A-0--0-8--8--8--8--8---0-0--0-8--8--8--8--8---8-8--8-10-10-10-10-10-|
D-0--0-----------------0-0--0-----------------8-8--8----------------|

First intro ending      Second intro Ending
e-------------------    e------------|
B-------------------    B------------|
G-9--9-9--10--10-10-    G------------|
D-x--x-x---x---x--x-    D-10-8-7h8---|
A-7--7-7---9---9--9-    A---------8--|
D-------------------    D---0-0------|
                            . .

Verse 1
e------------------------------------------------|
B------------------------------------------------|
G------------------------------------------------|
D-----------------------------------10-8-7h8-----|
A-0-00--00000-00--00000-00--00000-----------8----|
D-0-00--00000-00--00000-00--00000-----0-0--------|
    ..  ..... ..  ..... ..  .....     . .

e------------------------------------------------------------|
B------------------------------------------------------------|
G------------------------------------------------------------|
D-----------------------------------10-8-7h8---8-7-5h7-------|
A-0-00--00000-00--00000-00--00000-----------8---------7------|
D-0-00--00000-00--00000-00--00000-----0-0-------0-0----------|
    ..  ....  ..  ..... ..  .....     . .       . .

Breakdown 1
e-------------------------------------------|
B-------------------------------------------|
G-------------------------------------------|
D-------------------------------------------|
A-0-0--000--0-0--000-0-0--000-6tr9-5tr8-----|
D-0-0--000--0-0--000-0-0--000---------------|

e---------------------------------------------------|
B---------------------------------------------------|
G------------------------------------------12\------|
D-------------------------------------7-10----------|
A-0-0--000--0-0--000-0-0--000-----6-9---------------|
D-0-0--000--0-0--000-0-0--000-5-8-------------------|
                              unsure about this part

e-----------------------------------------|
B-----------------------------------------|
G-----------------------------------------|
D-----------------------------------[3b]--|
A-0-0~--000~--0-0~--000-0-0~--000~--------|
D-1-1~--111~--1-1~--111-1-1~--111~--------|
  . .   ...   . .   ... . .   ...

e---------------------------------------------|
B---------------------------------------------|
G---------------------------------------------|
D----------------------------------------0~---|
A-0-0--000--0-0--000-0-0--000-6tr9-5tr8--0~---|
D-0-0--000--0-0--000-0-0--000------------0~---|


Breakdown 2
e----------------------------------------------|
B----------------------------------------------|
G----------------------------------------------|
D----------------------------------------------|
A-00---000-0-00--000-000-000-000-0-00--000-000-|
D-00---000-0-00--000-000-000-000-0-00--000-000-|
  ..   ... . ..  ... ... ... ... . ..  ... ...

e----------------------------------------------|
B----------------------------------------------|
G----------------------------------------------|
D----------------------------------------------|
A-000-0-00--000-000-000-000-0-00--00-----------|
D-000-0-00--000-000-000-000-0-00--00-----------|
  ... . ..  ... ... ... ... . ..  ..

Chorus (X2)
e----------------------------------------------|
B----------------------------------------------|
G----------------------------------------------|
D-0-------8------3------0-------8------10------|
A-0-(x16)-8-(x8)-3-(x8)-0-(x16)-8-(x8)-10-(x8)-|
D-0-------8------3------0-------8------10------|


Verse 2 (X4)
e----------------------------------------------------------------|
B----------------------------------------------------------------|
G--------9-9-9-----------10-10-10--------------------------------|
D-0------x-x-x--0--------x--x--x---0-----------------------------|
A-0-000--7-7-7--0-0-000--8--8--8---0-----------------------------|
D-0-000---------0-0-000------------0-0000-8888-10101010-12121212-|
    ...           . ...

Outro
e---------------------------------------------------|
B---------------------------------------------------|
G---------------------------------------------------|
D-0~------------------------------------------------|
A-0~-----0000----0000-00-0----00000----0000-00-0-0~-|
D-0~-----0000----0000-00-0----00000----0000-00-0-0~-|
         ....    .... .. .    .....    .... .. . .

e-------------------------------------------------------|
B-------------------------------------------------------|
G-10-------9-------7-------10-------12------12/10/9/7-7-|
D-x-(x16)--x-(x8)--x-(x8)--x-(x16)--x-(x8)--x-/x-/x/x-x-|
A-8--------7-------5-------8--------10------10/8-/7/5-5-|
D-------------------------------------------------------|

e------------------------------------------------------------------------|
B------------------------------------------------------------------------|
G-10-------12-----------Part in between these mutes below----------------|
D-x-(x16)--x-(x16)-------------------------------------------------------|
A-8--------8--------0----------0-0------------0----------0-0-------------|
D-------------------0----------0-0------------0----------0-0-------------|
                    .          . .            .          . .
(Part inbetween palm mutes)
e|------------------------------------|
B|------------------------------------| 
G|------------------------------------| Guitar 1
D|-----10p0--------10-10p0-3p0-5p0----|
A|--0--------00-0---------------------|
D|--0--------00-0---------------------|
. . . .

e|------------------------------------|
B|------------------------------------|
G|------------------------------------|
D|-----14p0--------14-14p0-7p0-8p0----| Guitar 2
A|--0--------00-0---------------------|
D|--0--------00-0---------------------|


e------------------------------------------------------------------------|
B------------------------------------------------------------------------|
G-10-------12------------------------------------------------------------|
D-x-(x16)--x-(x16)-------------------------------------------------------|
A-8--------8--------0----------0-0------------0----------0-0-------------|
D-------------------0----------0-0------------0----------0-0-------------|
                    .          . .            .          . .

e-------|
B-------|
G-------|
D-0~----|
A-0~----|
D-0~----|

Breakdown 3 (X4)
e-----------------------------------------------------|
B-----------------------------------------------------|
G-----------------------------------------------------|
D-----------------------------------------------------|
A-0000-00-0000-00-00-00-00--0000-00-00000000-00-00-00-|
D-0000-00-0000-00-00-00-00--0000-00-00000000-00-00-00-|
  .... .. .... .. .. .. ..  .... .. ........ .. .. ..
comments
print report bad tab
17 comments total. Showing first comments. show 1 bad comment
+8 reply
KittyCatRape wrote on March 23 2010, 10:56 am

WTF dude , its drop D , get your facts straight .

0 reply
KittyCatRape wrote on March 23 2010, 11:11 am

e|--------------------------------------------------|
B|--------------------------------------------------|
G|--------------------------------------------------|
D|----0--8p0-00-0----10-10-8-7p0-8p0----------------|
A|----0------00-0-----------------------------------|
D|----0------00-0-----------------------------------|
. .. .

I want to post or [tab]
guest
You may want to rate the tab now too:
select rating
Please do not post tabs as comments. Select "correction" instead!