Oops, an error
Loading. Please wait.

I Was Once Possibly Maybe Perhaps A Cowboy King Bass Tab

version 1
version 1

Whole song

Interactive

5,181 views 3 this week
no commentswrite comment
1 2 3 4 5
please rate
add to favorites
launch autoscroll
font size
0
reset
guitar tuner
Autoscroll
slow
fast
+/-
esc
set tempo
stop
Help us to improve Ultimate-Guitar.com Take our survey!
×
Contributor
Difficulty
Tuning
Bassist44 195
novice
D A D G B E
Asking Alexandria: I was once, possibly, maybe, perhaps a cowboy king
Enjoy >:D

Start-0:15
G|-------------------------------------------------------------------------|
D|-------------------------------------------------------------------------|
A|-------------------------------------------------------------------------|
D|0--0-0---0--0-0----0-0-0---0--0-0--0-0--0-0--0---0--0-0----0-0-0---0--0-0|
                                                                         X2
0:15-0:35
G|-------------------------------------------------------------------------|
D|-------------------------------------------------------------------------|
A|-------------------------------------------------------------------------|
D|0--------------0--------------8-------------10-------------5-------------|
                                                                         X2
0:35-0:55
G|-------------------------------------------------------------------------|
D|-------------------------------------------------------------------------|
A|5--5-5--5-5-5--5-5-5-8--8----7--7-7--7-7-7--7-7-8--8--8--7-8--8-8--8-8-8-|
D|-------------------------------------------------------------------------|

---------------------------------------------|
---------------------------------------------|
---------------------------------------------|
-8-8-8-10-10---7--7-7--7-7-7-8-8-8-8-8-8--7--|
                                            X2
0:55-0:58
G|-------------------------------------------------------------------------|
D|-------------------------------------------------------------------------|
A|-------------------------------------------------------------------------|
D|12~----------------------------------------------------------------------|

0:59-1:29
G|---------------------------------------------------------------------------|
D|---------------------------------------------------------------------------|
A|----------------5--3-------------8-10-8-7-8-7-----------------5--3---------|
D|0-00000-000-000------0-00000-000--------------0-00000-000-000------0-00000-|

----------------------------------|
----------------------------------|
----8-8-8-8-8-8-10-10-10-10-10-10-|
000-------------------------------|
                                 X2
1:29-1:51
G|-------------------------------------------------------------------------|
D|-------------------------------------------------------------------------|
A|-------------------------------------------------------------------------|
D|000000003333333388888888-000-000-000-000-000000-000000003333333388888888-|

---------------------------------------------|
---------------------------------------------|
---------------------------------------------|
000-000-000-000-000000-000-000-000-000-000000|

2:00-2:07
G|-------------------------------------------------------------------------|
D|-------------------------------------------------------------------------|
A|-------------------------------------------------------------------------|
D|0~~~~~~~~~---------------------------------------------------------------|

2:07-2:38
G|---------------------------------------------------------------------------|
D|---------------------------------------------------------------------------|
A|---------------------------------------------------------------------------|
D|0000-0000000000-000000-00-0-0000-0000000000-00-00-0-0000-0000000000-000000-|

-------------------------------------------------------------|
-------------------------------------------------------------|
-------------------------------------------------------------|
00-0-0000-0000000000-00-00-0-0000-0000000000-000000-00-0-0000|

2:39-2:47
G|-------------------------------------------------------------------------|
D|-------------------------------------------------------------------------|
A|-------------------------------------------------------------------------|
D|0~~~~~~~~~---------------------------------------------------------------|

3:00-3:15
G|----------------------------------------------------------------------------|
D|----------------------------------------------------------------------------|
A|----------------------------------------------------------------------------|
D|0--0--0--0--0-0--0--0--0--0--0-0--0--0--0--0--0-0--0--0--0--0--0-0--0--0----|

---------------------------|
---------------------------|
---------------------------|
0--0--0-0--0--0--0--0--0-0-|

3:15-3:24
G|------------------------------------------------------------------------|
D|------------------------------------------------------------------------|
A|------------------------------------------------------------------------|
D|1--1--1--1--1-1-1-1--1--1--1--1-1-1-1--1--1--1--1-1-1-1--1--1--1--1-1-1-|

3:26-3:36
G|--------------------------------------------------------------------------|
D|--------------------------------------------------------------------------|
A|--------------------------------------------------------------------------|
D|1--1--1--1-1--1-1--1--1--1--1-1--1-1--1--1--1--1-1--1-1--1--1--1--1-1--1-1|

3:36-3:39
G|--------------|
D|--------------|
A|--------------|
D|0--0--0--0-0-0|

Did my best and i think i got it right now!
Send me some feedback on what you think of meh tabs!!!
Suggest correction new What's this?
You can suggest a correction to this tab. Community and Mods will review your correction and vote to approve or reject it.
comments
We did not receive enough feedback on this tab! Please rate:
print report bad tab
1 2 3 4 5
guest
You may want to rate the tab now too:
select rating
Please do not post tabs as comments. Select "correction" instead!