Oops, an error
Loading. Please wait.

I Was Once Possibly Maybe Perhaps A Cowboy King Tab

version 1
version 1

Whole song

Interactive

36,497 views 12 this week
2 commentsread comments
1 2 3 4 5
x 6
add to favorites
launch autoscroll
font size
0
reset
how to read this tab
guitar tuner
Autoscroll
slow
fast
+/-
esc
set tempo
stop
Help us to improve Ultimate-Guitar.com Take our survey!
×
Author
Difficulty
Tuning
novice
D A D G B E
All the tabs on here were way off so I decided to make my own.

Tab by TEDDY REISER

* = palm mutes
\ = slides


X6
e|-----------------------------------------------------------|
B|-----------------------------------------------------------|
G|-----------------------------------------------------------|
D|-----------------------------------------------------------|
A|0--0---0--0----0--0---0--0---0---0--0---0--0---0--0----0--0|
D|0--0---0--0----0--0---0--0---0---0--0---0--0---0--0----0--0|
  *  *   *  *    *  *   *  *   *   *  *   *  *   *  *    *  *  
					X2
e|-----------------------------------------------------------|
B|-----------------------------------------------------------|
G|-----------------------------10-------------12------5------|
D|0-------------0--------------x--------------x-------x------|
A|0-------------0--------------8--------------10------3------|
D|0-------------0--------------------------------------------|


		     The Next 4 Measures x 2
e|-----------------------------------------------------------|
B|-----------------------------------------------------------|
G|7--7-7--7-7-7--7-7-7-10-10---9--9-9--9-9-9--9-9-10-10-10-9-|
D|x--x-x--x-x-x--x-x-x-x--x----x--x-x--x-x-x--x-x-x--x--x--x-|
A|5--5-5--5-5-5--5-5-5-8--8----7--7-7--7-7-7--7-7-8--8--8--7-|
D|-----------------------------------------------------------|

e|-----------------------------------------------------------|
B|-----------------------------------------------------------|
G|10-1010-101010-10101012-12---9--9-9--9-9-9-101010101010-9--|
D|x--x-x--x-x-x--x-x-x-x--x----x--x-x--x-x-x-x-x-x-x-x-x--x--|
A|8--8-8--8-8-8--8-8-8-10-10---7--7-7--7-7-7-8-8-8-8-8-8--7--|
D|-----------------------------------------------------------|

e|-----------------------------------------------------------|
B|-----------------------------------------------------------|
G|7--7-7--7-7-7--7-7-7-10-10---9--9-9--9-9-9--9-9-10-10-10-9-|
D|x--x-x--x-x-x--x-x-x-x--x----x--x-x--x-x-x--x-x-x--x--x--x-|
A|5--5-5--5-5-5--5-5-5-8--8----7--7-7--7-7-7--7-7-8--8--8--7-|
D|-----------------------------------------------------------|

e|-----------------------------------------------------------|
B|-----------------------------------------------------------|
G|10-1010-101010-10101012-12---9--9-9--9-9-9-101010101010-9--|
D|x--x-x--x-x-x--x-x-x-x--x----x--x-x--x-x-x-x-x-x-x-x-x--x--|
A|8--8-8--8-8-8--8-8-8-10-10---7--7-7--7-7-7-8-8-8-8-8-8--7--|
D|-----------------------------------------------------------|

			This bar is two measures
e|-----------------------------------------------------------|
B|-----------------------------------------------------------|
G|7----------------------------------------------------------|
D|x-----------------------------------------------12\--------|
A|5-----------------------------------------------12\--------|
D|------------------------------------------------12\--------|
                             
			The next 4 measures x 2                                          
e|-----------------------------------------------------------|
B|-----------------------------------------------------------|
G|-----------------------------------------------------------|
D|0----------------------------------------------------------|
A|0---0-0-0-0-0-0---0-0-0-0----0---0--0---5--------3---------|
D|0---0-0-0-0-0-0---0-0-0-0----0---0--0------0--0-----0--0---|
      * * * * * *   * * * *    *   *  *      *  *     *  * 

e|-----------------------------------------------------------|
B|-----------------------------------------------------------|
G|-----------------------------------------------------------|
D|0----------------------------8----10---8----7--------------|
A|0---0-0-0-0-0-0---0-0-0-0----8----8----8----7----8----7----|
D|0---0-0-0-0-0-0---0-0-0-0----8----8----8----7----7----7----|
      * * * * * *   * * * *  
e|-----------------------------------------------------------|
B|-----------------------------------------------------------|
G|-----------------------------------------------------------|
D|0----------------------------------------------------------|
A|0---0-0-0-0-0-0---0-0-0-0----0---0--0---5--------3---------|
D|0---0-0-0-0-0-0---0-0-0-0----0---0--0------0--0-----0--0---|
      * * * * * *   * * * *    *   *  *      *  *     *  * 

e|-----------------------------------------------------------|
B|-----------------------------------------------------------|
G|-----------------------------------------------------------|
D|12---12---12---12---12---12---12---12---12---12---12---12--|
A|10---10---10---10---10---10---12---12---12---12---12---12--|
D|10---10---10---10---10---10---12---12---12---12---12---12--|



e|-----------------------------------------------------------|
B|-----------------------------------------------------------|
G|-----------------------------------------------------------|
D|-----------------------------------------------------------|
A|0---0---0---0--0---0--0---0--3---3---3---3--3---3--3---3---|
D|0---0---0---0--0---0--0---0--3---3---3---3--3---3--3---3---|


e|-----------------------------|
B|-----------------------------|
G|-----------------------------|
D|-----------------------------|
A|8---8---8---8--8---8--8---8--|
D|8---8---8---8--8---8--8---8--|


e|-----------------------------------------------------------|
B|-----------------------------------------------------------|
G|-----------------------------------------------------------|
D|-----------------------------------------------------------|
A|-----------------------------------------------------------|
D|00000-----0-0-0-----00000-----0-0-0---0-0---00000--00000---|
  *****     * * *     *****     * * *   * *   *****  *****

e|-----------------------------------------------------------|
B|-----------------------------------------------------------|
G|-----------------------------------------------------------|
D|-----------------------------------------------------------|
A|0---0---0---0--0---0--0---0--3---3---3---3--3---3--3---3---|
D|0---0---0---0--0---0--0---0--3---3---3---3--3---3--3---3---|


e|-----------------------------|
B|-----------------------------|
G|-----------------------------|
D|-----------------------------|
A|8---8---8---8--8---8--8---8--|
D|8---8---8---8--8---8--8---8--|


e|-----------------------------------------------------------|
B|-----------------------------------------------------------|
G|-----------------------------------------------------------|
D|-----------------------------------------------------------|
A|-----------------------------------------------------------|
D|00000-----0-0-0-----00000-----0-0-0---0-0---00000--00000---|
  *****     * * *     *****     * * *   * *   *****  *****

e|-----------------------------------------------------------|
B|-----------------------------------------------------------|
G|-----------------------------------------------------------|
D|-----------------------------------------------------------|
A|-----------------------------------------------------------|
D|00000-----0-0-0-----00000-----0-0-0---0-0---00000--00000---|
  *****     * * *     *****     * * *   * *   *****  *****

Techno riff x 4

			This bar is two measures
e|-----------------------------------------------------------|
B|-----------------------------------------------------------|
G|-----------------------------------------------------------|
D|0----------------------------------------------------------|
A|0----------------------------------------------------------|
D|0----------------------------------------------------------|

X8
there are two slides in the 2nd & 4th measures, listen
e|-----------------------------------------------------------|
B|-----------------------------------------------------------|
G|-----------------------------------------------------------|
D|-----------------------------------------------------------|
A|0---0--0--0--0--0-0--0--0--0--0--0---0-0--0-0--------------|
D|0---0--0--0--0--0-0--0--0--0--0--0---0-0--0-0--------------|
  *   *  *  *  *  * *  *  *  *  *  *   * *  * *

			This bar is four measures
e|-----------------------------------------------------------|
B|-----------------------------------------------------------|
G|-----------------------------------------------------------|
D|0----------------------------------------------------------|
A|0----------------------------------------------------------|
D|0----------------------------------------------------------|

X6
e|-----------------------------------------------------------|
B|-----------------------------------------------------------|
G|-----------------------------------------------------------|
D|-----------------------------------------------------------|
A|0-----0-----0-----0-----0--0--0-----0-----0-----0-----0--0-|
D|0-----0-----0-----0-----0--0--0-----0-----0-----0-----0--0-|

X2
e|-----------------------------------------------------------|
B|-----------------------------------------------------------|
G|-----------------------------------------------------------|
D|-----------------------------------------------------------|
A|0------0---0---0---0--0---0-0-0-----0---0---0---0--0---0-0-|
D|1------1---1---1---1--1---1-1-1-----1---1---1---1--1---1-1-|   
         *   *   *   *  *   * *       *   *   *   *  *   * *

e|-----------------------------------------------------------|
B|-----------------------------------------------------------|
G|-----------------------------------------------------------|
D|-----------------------------------------------------------|
A|------------------------------0-----0---0---0---0--0---0-0-|
D|------------------------------1-----1---1---1---1--1---1-1-|
	                              *   *   *   *  *   * *

e|-----------------------------------------------------------|
B|-----------------------------------------------------------|
G|-----------------------------------------------------------|
D|-----------------------------------------------------------|
A|0------0---0---0---0--0---0-0-0-----0---0---0---0--0---0-0-|
D|1------1---1---1---1--1---1-1-1-----1---1---1---1--1---1-1-|
	 *   *   *   *  *   * *       *   *   *   *  *   * *


e|-----------------------------------------------------------|
B|-----------------------------------------------------------|
G|-----------------------------------------------------------|
D|-----------------------------------------------------------|
A|0------0---0---0---0--0---0-0-0-----0---0---0---0--0-------|
D|1------1---1---1---1--1---1-1-0-----0---0---0---0--0-------|
	 *   *   *   *  *   * * 
Suggest correction
comments
print report bad tab
2 comments total.
+2 reply
_Gold_ 10 Nov 20, 2009 11:58 PM

OMG! so Far its a good Tab
Awesome and this is 1 of my favorite ones :)
Thanks alot

0 reply
cworosz24 50 Mar 12, 2010 02:26 PM

I have a perfected version of this song in my profile under my contributions. For some reason it wasn't approved, but Its far more correct.

guest
You may want to rate the tab now too:
select rating
Wanna post a correction for this tab? Suggest correction