Oops, an error
Loading. Please wait.

I Was Once Possibly Maybe Perhaps A Cowboy King Tab

version 2
version 2

Whole song

Interactive

24,300 views 21 this week
1 commentread comment
1 2 3 4 5
excellent!
x 15
add to favorites
launch autoscroll
font size
0
reset
how to read this tab
guitar tuner
Tab Pro tools
  • play this tab
  • loop segment
  • change instrument
  • show fretboard
  • metronome
×
Best way to learn
"I Was Once Possibly Maybe Perhaps A Cowboy King"
Autoscroll
slow
fast
+/-
esc
set tempo
stop
Contributor
Difficulty
Tuning
intermediate
D A D G B E
My favorite song by Asking Alexandria, even though the Demo version is so much
better. I need some help with the harmonies in the Pre-verse.

Drop D

INTRO - X4. Guitar 1 & 2 (Let mutes ring on the 3rd measure.)
e--------------------------------------|
B--------------------------------------|
G--------------------------------------|
D--------------------------------------|
A-00-00---00-00------0--00---00--00-00-|
D-00-00---00-00------0--00---00--00-00-|
  ** **   ** **      *  **   **  ** **

PRE-VERSE - X2 (I can't figure out the harmony, so for now...)

Guitar 1
e-------------------------------|
B-------------------------------|
G-------------------------------|
D-0~-----0~-----8~-----10~---7~-|
A-0~-----0~-----8~-----10~---7~-|
D-0~-----0~-----8~-----10~---7~-|

Guitar 2
e-------------------------------|
B-------------------------------|
G---------------10~----12~---9~-|
D-0~-----0~-----X------X-----X--|
A-0~-----0~-----8~-----10~---7~-|
D-0~-----0~---------------------|

VERSE - X2

Guitar 1
e---------------------------------------------------------------------|
B---------------------------------------------------------------------|
G---------------------------------------------------------------------|
D-7-77-777-777-777-5-55-555-555-555-3-33-333-333-333-5-55-555-555-555-|
A-5-55-555-555-555-3-33-333-333-333-1-11-111-111-111-3-33-333-333-333-|
D---------------------------------------------------------------------|

Guitar 2
e----------------------------------------------------------------------|
B----------------------------------------------------------------------|
G-7-77-777-777-101010-9-99-999-101010-999-10-1010-101010-101010-121212-|
D-X-XX-XXX-XXX-X-X-X--X-XX-XXX-X-X-X--XXX-X--X-X--X-X-X--X-X-X--X-X-X--|
A-5-55-555-555-8-8-8--7-77-777-8-8-8--777-8--8-8--8-8-8--8-8-8--101010-|
D----------------------------------------------------------------------|

e----------------------|
B----------------------|
G-9-99-999-101010-10-9-|
D-X-XX-XXX-X-X-X--X--X-|
A-7-77-777-8-8-8--8--7-|
D----------------------|

VERSE ENDING

Guitar 1    Guitar 2
e----       e----|
B----       B----|
G----       G----|
D-0~-       D-7~-|
A-0~-       A-X--|
D-0~-       D-5~-|

CHORUS - X2

Guitar 1
e-----------------------------------------------------------|
B-----------------------------------------------------------|
G-----------------------------------------------------------|
D-0------------------------------0--------------10----------|
A-0-000000-0000-0-00-------------0-000000-0000-8-8-8--7-8-7-|
D-0-000000-0000-0-00-12-00-10-00-0-000000-0000-8-8-8--7-7-7-|
    ****** **** * **    **    **   ****** ****
e--------------------------------------------------------------------|
B--------------------------------------------------------------------|
G--------------------------------------------------------------------|
D-0------------------------------8-10-10-10-10-10--10-12-12-12-12-12-|
A-0-000000-0000-0-00-------------8-8--8--8--8--8---10-10-10-10-10-10-|
D-0-000000-0000-0-00-12-00-10-00-8-8--8--8--8--8---10-10-10-10-10-10-|
    ****** **** * **    **    **

Guitar 2
e---------------------------------------------------------|
B---------------------------------------------------------|
G---------------------------------------------------------|
D-0----------------------------0--------------10----------|
A-0-000000-0000-0-00-8----7----0-000000-0000-8-8-8--7-8-7-|
D-0-000000-0000-0-00---00---00-0-000000-0000-8-8-8--7-7-7-|
    ****** **** * **   **   **   ****** ****
e------------------------------------------------------------------|
B------------------------------------------------------------------|
G------------------------------------------------------------------|
D-0----------------------------8-10-10-10-10-10--10-12-12-12-12-12-|
A-0-000000-0000-0-00-8----7----8-8--8--8--8--8---10-10-10-10-10-10-|
D-0-000000-0000-0-00---00---00-8-8--8--8--8--8---10-10-10-10-10-10-|
    ****** **** * **   **   **

BRIDGE - Guitar 1 & 2
e----------------------------------------------------------|
B----------------------------------------------------------|
G----------------------------------------------------------|
D-0------3------8------------------------------------------|
A-0-(x8)-3-(x8)-8-(x8)--000--0-0-0--000--0-0-0--00-000-000-|
D-0------3------8-------000--0-0-0--000--0-0-0--00-000-000-|
                        ***  * * *  ***  * * *  ** *** ***

e----------------------------------------------------------|
B----------------------------------------------------------|
G----------------------------------------------------------|
D-0------3------8------------------------------------------|
A-0-(x8)-3-(x8)-8-(x8)--000--0-0-0--000--0-0-0--00-000-000-|
D-0------3------8-------000--0-0-0--000--0-0-0--00-000-000-|
                        ***  * * *  ***  * * *  ** *** ***

e------------------------------------|
B------------------------------------|
G------------------------------------|
D------------------------------------|
A-000--0-0-0--000--0-0-0--00-000-000-|
D-000--0-0-0--000--0-0-0--00-000-000-|
  ***  * * *  ***  * * *  ** *** ***

BREAKDOWN 1 - Guitar 1 & 2 (Load Up Your Six Shot...)
e------------------------------------------------------------------|
B------------------------------------------------------------------|
G------------------------------------------------------------------|
D-0~-----------------------------------------------------------12\-|
A-0~-----0-00--000000--00-0-00-00---0-00--000000--00-0-00-00---12\-|
D-0~-----0-00--000000--00-0-00-00---0-00--000000--00-0-00-00---12\-|
         * **  ******  ** * ** **   * **  ******  ** * ** **

e----------------------------------------------------------|
B----------------------------------------------------------|
G------------(Let mutes ring)------------------------------|
D-------------------------------------------------------1/-|
A-0-00--000000--00-0-00-00---0-00--000000--00-0-00-00---1/-|
D-0-00--000000--00-0-00-00---0-00--000000--00-0-00-00---1/-|
  * **  ******  ** * ** **   * **  ******  ** * ** **

e-----------------------------------------------------|
B-----------------------------------------------------|
G-----------------------------------------------------|
D-----------------------------------------------------|
A-0-00--000000--00-0-00-00---0-00--000000--00-0-00-00-|
D-0-00--000000--00-0-00-00---0-00--000000--00-0-00-00-|
  * **  ******  ** * ** **   * **  ******  ** * ** **

e----------------------------------------------------------|
B----------------------------------------------------------|
G------------(Let mutes ring)------------------------------|
D-------------------------------------------------------0~-|
A-0-00--000000--00-0-00-00---0-00--000000--00-0-00-00---0~-|
D-0-00--000000--00-0-00-00---0-00--000000--00-0-00-00---0~-|
  * **  ******  ** * ** **   * **  ******  ** * ** **

BRIDGE 2 - X6. Guitar 1 & 2 (Lay Your Guns Down...)
e-----------------|
B-----------------|
G-----------------|
D-0--0--0--0--0-0-|
A-0--0--0--0--0-0-|
D-0--0--0--0--0-0-|

BREAKDOWN 2 - Guitar 1 & 2 (Cutting, always cutting...)
e----------------------------------------------------------|
B----------------------------------------------------------|
G---(let mutes ring)---------------------------------------|
D----------------------------------------------------------|
A-0--0--0--0--00---000-0--0--0--0--00---000-0--0--0--0--00-|
D-1--1--1--1--11---111-1--1--1--1--11---111-1--1--1--1--11-|
  *  *  *  *  **   *** *  *  *  *  **   *** *  *  *  *  **

e--------------------|
B--------------------|
G--------------------|
D--------------------|
A-000-0--0--0--0--00-|
D-111-1--1--1--1--11-|
  *** *  *  *  *  **

(YEEEE-HAWWWWWWW!!!)

e----------------------------------------------------------|
B----------------------------------------------------------|
G------(Let mutes ring)------------------------------------|
D----------------------------------------------------------|
A-0--0--0--0--00---000-0--0--0--0--00---000-0--0--0--0--00-|
D-1--1--1--1--11---111-1--1--1--1--11---111-1--1--1--1--11-|
  *  *  *  *  **   *** *  *  *  *  **   *** *  *  *  *  **

e--------------------|
B--------------------|
G--------------------|
D--------------------|
A-000-0--0--0--0--00-|
D-111-1--1--1--1--11-|
  *** *  *  *  *  **

OUTRO - Guitar 1 & 2
e-----------------|
B-----------------|
G-----------------|
D-0--0--0--0--0-0-|
A-0--0--0--0--0-0-|
D-0--0--0--0--0-0-|
comments
print report bad tab
1 comment total.
+2 reply
bfmv13\m/ wrote on March 2 2013, 04:10 am

the pre-verse goes like this:

Guitar 1
e-------------------------------|
B-------------------------------|
G----------------------9~---5~-|
D-0~-----0~-----10~----X----X--|
A-0~-----0~-----8~-----7~---3~-|
D-0~-----0~-----8~-------------|

Guitar 2
e-------------------------------|
B-------------------------------|
G----------------------12~---9~-|
D-0~-----0~-----10~-----X----X--|
A-0~-----0~-----8~-----10~---7~-|
D-0~-----0~-----8~--------------|

I want to post or [tab]
guest
You may want to rate the tab now too:
select rating
Please do not post tabs as comments. Select "correction" instead!