Oops, an error
Loading. Please wait.

I Was Once Possibly Maybe Perhaps A King Tab

version 1
version 1

Whole song

20,989 views 3 this week
4 commentsread comments
1 2 3 4 5
excellent!
x 11
add to favorites
launch autoscroll
font size
0
reset
how to read this tab
guitar tuner
Tab Pro tools
  • play this tab
  • loop segment
  • change instrument
  • show fretboard
  • metronome
Autoscroll
slow
fast
+/-
esc
set tempo
stop
Contributor
Asking Alexandria - I was once possibly maybe perhaps a king

Tabbed by: Andres Piantini
Email: piantino.bringme@scream.la

Tuning: Drop D

My second tab, I hope that they enjoy it. Be grateful

 Intro
                               x5
e|-------------------------------|-----------------------------------------|
B|-------------------------------|-----------------------------------------|
G|-------------------------------|---------------------------------10-12-9-|
D|-------------------------------|-----------------------------0-0-x--x--x-|
A|-------------------------------|-----------------------------0-0-8--10-7-|
D|-00-00--00-00--0-00-00-00-0000-|-00-00--00-00--0-00-00-00-00-0-0---------|
   ** **  ** **  * ** ** ** ****   ** **  ** **  * ** ** ** **

e|--------------|------------------------------------------------------------|
B|--------------|------------------------------------------------------------|
G|-----10-12--9-|-7-7-7-7-7-7-7-7-7-7-7-7/10-10-10-9--9-9-9-9-9-9-9-10-10-10-|
D|-0-0-x--x---x-|-x-x-x-x-x-x-x-x-x-x-x-x/x--x--x--x--x-x-x-x-x-x-x-x--x--x--|
A|-0-0-8--10--7-|-5-5-5-5-5-5-5-5-5-5-5-5/8--8--8--7--7-7-7-7-7-7-7-8--8--8--|
D|-0-0----------|------------------------------------------------------------|

e|-------------------------------------------------------------------|
B|-------------------------------------------------------------------|
G|-10-10-10-10-10-10-10-10-10-10-10-10-12-12-12-9-9-9-9-9-9-9-9-9/10-|
D|-x--x--x--x--x--x--x--x--x--x--x--x--x--x--x--x-x-x-x-x-x-x-x-x/x--|
A|-8--8--8--8--8--8--8--8--8--8--8--8--10-10-10-7-7-7-7-7-7-7-7-7/8--|
D|-------------------------------------------------------------------|

            x2
e|------------|--------------------------------------------------------------|
B|------------|--------------------------------------------------------------|
G|------------|--------------------------------------------------------------|
D|-10-10-10-9-|-0--0------------------------------0-------------8-10-10-5-75-|
A|-x--x--x--x-|-0--0------------------------------0-------------8-8--8--5-55-|
D|-8--8--8--7-|-0--0-000000-0000-0-00-12-00-10-00-0-000000-0000-8-8--8--5-55-|
                     ****** **** * **    **    **   ****** ****
                                                                        x2
e|-------------------------------------------------------------------------|
B|-------------------------------------------------------------------------|
G|-------------------------------------------------------------------------|
D|-0------------------------------8--10-10-10-10-10-10--12--12--12--12--12-|
A|-0------------------------------8--8--8--8--8--8--10--10--10--10--10--10-|
D|-0-000000-0000-0-00-12-00-10-00-8--8--8--8--8--8--10--10--10--10--10--10-|
     ****** **** * **    **    **

                                                   x2
e|-----------------------------------------------------|
B|-----------------------------------------------------|
G|---x8----x8----x8------------------------------------|
D|-0----3-----8----------------------------------------|
A|-0----3-----8-----00000-000-00000-000-00-00000-00000-|
D|-0----3-----8-----00000-000-00000-000-00-00000-00000-|
                    ***** *** ***** *** ** ***** *****
e|--------------------------------------------------------------------|
B|--------------------------------------------------------------------|
G|--------------------------------------------------------------------|
D|------------------------------------------------------0-------------|
A|-00000-000-00000-000-00-00000-00000---Techno part-----0-------------|
D|-00000-000-00000-000-00-00000-00000-------------------0-------------|
   ***** *** ***** *** ** ***** *****

e|--------------------------------------------------|
B|--------------------------------------------------|
G|--------------------------------------------------|
D|----------------------------------------------12\-|
A|-0-00-000000-000-00-00--0-00-000000-000-00-00-12\-|
D|-0-00-000000-000-00-00--0-00-000000-000-00-00-12\-|
   * ** ****** *** ** **  * ** ****** *** ** **
e|-------------------------------------------------|
B|-------------------------------------------------|
G|-------------------------------------------------|
D|----------------------------------------------1/-|
A|-0-00-000000-000-00-00--0-00-000000-000-00-00-1/-|
D|-0-00-000000-000-00-00--0-00-000000-000-00-00-1/-|
   * ** ****** *** ** **  * ** ****** *** ** **
                                             x2
e|----------------------------------------------|---|
B|----------------------------------------------|---|
G|----------------------------------------------|---|
D|----------------------------------------------|-0-|
A|-0-00-000000-000-00-00--0-00-000000-000-00-00-|-0-|
D|-0-00-000000-000-00-00--0-00-000000-000-00-00-|-0-|
   * ** ****** *** ** **  * ** ****** *** ** **
                                 x3
e|----------------------------------|-----------------------------------------|
B|----------------------------------|-----------------------------------------|
G|----------------------------------|-----------------------------------------|
D|----------------------------------|-----------------------------------------|
A|-0--0--0--0--0-0--0--0--0--0--0-0-|-0--0--0--0--00--000-0--0--0-00-000-0--0-|
D|-0--0--0--0--0-0--0--0--0--0--0-0-|-1--1--1--1--11--111-1--1--1-11-111-1--1-|
   *  *  *  *  * *  *  *  *  *  * *   *  *  *  *  **  *** *  *  * ** *** *  *
e|---------------------------------------------------------------------------|
B|---------------------------------------------------------------------------|
G|---------------------------------------------------------------------------|
D|---------------------------------------------------------------------------|
A|-0-00-000-0--0--0-00---0--0--0--0-00-000-0--0--0-00-000-0--0--0-00-000--0--|
D|-1-11-111-1--1--1-11---1--1--1--1-11-111-1--1--1-11-111-1--1--1-11-111--1--|
   * ** *** *  *  * **   *  *  *  * ** *** *  *  * ** *** *  *  * ** ***  *
e|---------------------------------------------------------------------------|
B|---------------------------------------------------------------------------|
G|---------------------------------------------------------------------------|
D|---------------------------------------------------------------------------|
A|-0--0-00-000-0--0--0--0-0--------------------------------------------------|
D|-1--1-11-110-0--0--0--0-0--------------------------------------------------|
   *  * ** *** *  *  *  * *

                                       END

| /  slide up
| \  slide down
| *  palm mute
| ^  bent note
| ~  vibrato
| [] Harmonic
| h  Hammer on
| p  Pull of
===============================================================================
comments
print report bad tab
4 comments total. Showing first comments.
0 reply
cworosz24 wrote on March 7 2010, 11:14 am

This intro is actually only played 4x.
The third time it's played you let the notes ring out.

0 reply
cworosz24 wrote on March 24 2010, 04:52 pm

The second verse where you have the "12" and "10" notes.
They're actually octave chordes.

The "12" should be 7 and the "10" should be 5.
x x
5 3
Well those are the two best sounding chords to me.

0 reply
cworosz24 wrote on March 24 2010, 04:53 pm

>[

I want to post or [tab]
guest
You may want to rate the tab now too:
select rating
Please do not post tabs as comments. Select "correction" instead!