Oops, an error
Loading. Please wait.

I Wont Give In tab

version 2
version 2

Whole song

Interactive

2,592 views 3 this week
1 commentread comment
1 2 3 4 5
1 last vote to show rating
add to favorites
×
Save as Personal and add changes to this tab that will be seen only by you. Learn more ›
×
You can save this tab as Personal to edit and correct it or add notes. All changes will be seen only by you. Learn more »
launch autoscroll
font size
0
reset
how to read this tab
guitar tuner
edit
Autoscroll
slow
fast
+/-
esc
set tempo
stop
-------------------------------------------------------------------------------
                             I WON'T GIVE IN - Asking Alexandria
-------------------------------------------------------------------------------
Tabbed by: Will Ventres
E-mail: ventreswill@gmail.com

Tuning: Drop C

INTRO/CHORUS:
Lead Rhythm isn't fully typed out* 
D|---------------------------------------------------------------------------|
A|---------------------------------------------------------------------------|
F|---------------------------------------------------------------------------|
C|-9999-99-9-9-999--7-777-7-7-777--2222-22-2-2-222-2-222-22222222------------|
G|-9999-99-9-9-999--7-777-7-7-777--2222-22-2-2-222-2-222-22222222------------|
C|-9999-99-9-9-999--7-777-7-7-777--2222-22-2-2-222-2-222-22222222------------|
 |                                                                           |
D|---------------------------------------------------------------------------|
A|17-17-17-17-17-15-15-15-14-15-14-15-12-12-12-12-12-12-12-12-12-------------|
F|---------------------------------------------------------------------------|
C|---------------------------------------------------------------------------|
G|---------------------------------------------------------------------------|
C|---------------------------------------------------------------------------|

D|---------------------------------------------------------------------------|
A|---------------------------------------------------------------------------|
F|---------------------------------------------------------------------------|
C|-5555-55-5-5-555--7-777-7-7-777-2222-22-2-2-222---------2------------------|
G|-5555-55-5-5-555--7-777-7-7-777-2222-22-2-2-222-----2-2-2------------------|
C|-5555-55-5-5-555--7-777-7-7-777-2222-22-2-2-222-2-2-2-2-2------------------|
 |                                                                           |
D|---------------------------------------------------------------------------|
A|17-17-17-17-17-17-20----19------15-15-15-15-15-15-15-15-15\----------------|
F|---------------------------------------------------------------------------|
C|---------------------------------------------------------------------------|
G|---------------------------------------------------------------------------|
C|---------------------------------------------------------------------------|

VERSE:
Heavy Reverb & Octave possibly
There are background guitars creating more ambience here*
D|---------------------------------------------------------------------------|
A|---------2---3----p0--------2---3----p0--------2---3--p0-----2---3---------|
F|-4---------------------2-----------------2---------------------------2-----|
C|---------------------------------------------------------------------------|
G|---------------------------------------------------------------------------|
C|---------------------------------------------------------------------------|

PRECHORUS:
D|---------------------------------------------------------------------------|
A|-2-h3-p0---2-h3-p0----2-h3-p0----2-h3-p2-p0--------------------------------|
F|---------2---------2----------2--------------2-----------------------------|
C|---------------------------------------------------------------------------|
G|---------------------------------------------------------------------------|
C|---------------------------------------------------------------------------|

BREAKDOWN:
D|----------------|
A|----------------|
F|----------------|
C|-2-0-2---2-0-2--|
G|-2-0-2---2-0-2--|
C|-2-0-2---2-0-2--|

D|--------------------------------|------------------------------------------|
A|--------------------------------|------------------------------------------|
F|--------------------------------|------------------------------------------|
C|-2-0-2-x-2-0-2---------3-3-3-3--|--2-0-2-x-2-0-2--------------3-3----------|  X2
G|-2-0-2-x-2-0-2---------3-3-3-3--|--2-0-2-x-2-0-2------------3-3-3----------|
C|-2-0-2-x-2-0-2---x-x-xx3-3-3-3--|--2-0-2-x-2-0-2--7-7-7-7-3-3-3-3----------|

D|--------------------------------|------------------------------------------|
A|--------------------------------|------------------------------------------|
F|--------------------------------|------------------------------------------|
C|-2-0-2---------------------3-3--|--2-0-2-----7-7-7-7-----------------------|  X2
G|-2-0-2-----------------3-3-3-3--|--2-0-2-----7-7-7-7-----------------------|
C|-2-0-2-----------222-2-3-3-3-3--|--2-0-2-----7-7-7-7-33-33-3---------------|
 |                                                                           |
D|---------------------------------------------------------------------------|
A|---------------------------------------------------------------------------|
F|-4-4-4-4-4-4-4-4-4-4-4-7-7-7-7-7-4-4-4-4-4-4-4-4-4-4-4-4-4-4-4-4-----------|
C|---------------------------------------------------------------------------|
G|---------------------------------------------------------------------------|
C|---------------------------------------------------------------------------|

************************************

| /   slide up
| \   slide down
| h   hammer-on
| p   pull-off
| ~   vibrato
| +   harmonic
| x   Mute note
| b   Bend
| pb  Pre-bend
| br  Bend release
| pbr Pre-bend release
| brb Bend release bend

************************************

            
            
Suggest correction
Creating personal tab
Creating personal tab
You can edit any tab online and save it as your Personal.

You can edit, replace or remove any tab part or add personal notes – all changes will be seen only by you.

Personal tabs can be accessed anytime from any device, even offline.
Learn more »
Give kudos to tab author, rate the tab!
1 2 3 4 5
comments
print report bad tab
1 comment total.
0 reply
capofobviously 41 Mar 17, 2016 04:04 AM

if somebosy haven`t guitar pro, you can use video
https://www.youtube.com/watch?v=G6of2SqI544

guest
You may want to rate the tab now too:
select rating
Wanna post a correction for this tab? Suggest correction