Oops, an error
Loading. Please wait.

If You Cant Ride Two Horses At Once You Should Get Out Of The Circus Tab

version 1
version 1

Whole song

Interactive

95,664 views 78 this week
19 commentsread comments
1 2 3 4 5
excellent!
x 41
add to favorites
launch autoscroll
font size
0
reset
how to read this tab
guitar tuner
Tab Pro tools
  • play this tab
  • loop segment
  • change instrument
  • show fretboard
  • metronome
×
Best way to learn
"If You Cant Ride Two Horses At Once You Should Get Out Of The Circus"
Autoscroll
slow
fast
+/-
esc
set tempo
stop
Contributor
Difficulty
Tuning
novice
D A D G B E
" = Tremolo Pick
h = Hammer-on
p = Pull-off
* = Palm Mute
/ = Slide Up
\ = Slide Down
~ = Let Note Ring

This is my first tab and its only guitar one

0:00                   End here after second time
E|---------------------------------|-------------------|
B|---------------------------------|-------------------|
G|---------------------------------|-------------------|  x2
D|---------------------------------|-------------------|
A|---------5"------8"--7"----------|--10"-8"-7"-8"-----|
D|--------------------------8"--7"-|-------------------|

0:13   "I can't breathe"
E|---------------------------|
B|---------------------------|
G|---------------------------|  x2
D|---------------------------|
A|-00000--00000--0000--00000-|
D|-00000--00000--0000--00000-|
   *****  *****  ****  *****

0:21    "I feel I failed. I was meant to make you smile"
E|----------------------------------------------------------------------|
B|----------------------------------------------------------------------|
G|-----------10-9--------------9-10-9-----------10-9--------------------|
D|----------------7----------7-----------------------7------------------|
A|-00000--------------0000--------------00000-----------0000--000-000---|
D|-00000--------------0000--------------00000-----------0000--000-000---|
   *****              ****              *****           ****  *** ***

E|--------------------------------------------------------------------------|
B|--------------------------------------------------------------------------|
G|-----------10-9--------------9-10-9-----------10-9----------5-5--7-7------|
D|----------------7----------7-----------------------7--------x-x--x-x---0~-|
A|-00000--------------0000--------------00000-----------0000--3-3--5-5---0~-|
D|-00000--------------0000--------------00000-----------0000-------------0~-|
   *****              ****              *****           ****

0:40
E|----------------------------------------------------|
B|----------------------------------------------------|
G|----------------------------------------------------|
D|----------------------------------------------------|
A|---5---5---5--8--7--5--7----------------------10-8--|
D|-----0---0----------------8-0-8-0-8--7-0-7-0--------|
       *   *                  *   *      *   *

E|----------------------------------------------------|
B|----------------------------------------------------|
G|----------------------------------------------------|
D|----------------------------------------------------|
A|---5---5---5--8--7--5--7---10---10---10---8---8---8-|
D|-----0---0--------------------0----0--------0---0---|
       *   *                    *    *        *   *

E|----------------------------------------------------|
B|----------------------------------------------------|
G|----------------------------------------------------|
D|----------------------------------------------------|
A|---5---5---5--8--7--5--7----------------------10-8--|
D|-----0---0----------------8-0-8-0-8--7-0-7-0--------|
       *   *                  *   *      *   *

E|----------------------------------------------------|
B|----------------------------------------------------|
G|----------------------------------------------------|
D|----------------------------------------------------|
A|---5---5---5--8--7--5--7---10---10---10---8---8---8-|
D|-----0---0--------------------0----0--------0---0---|
       *   *                    *    *        *   *

E|----------------------------------------------------|
B|----------------------------------------------------|
G|----------------------------------------------------|
D|----------------------------------------------------|
A|---5---5---5--8--7--5--7----------------------10-8--|
D|-----0---0----------------8-0-8-0-8--7-0-7-0--------|
       *   *                  *   *      *   *

E|----------------------------------------------------|
B|----------------------------------------------------|
G|----------------------------------------------------|
D|----------------------------------------------------|
A|---5---5---5--8--7--5--7---10---10---10---8---8---8-|
D|-----0---0--------------------0----0--------0---0---|
       *   *                    *    *        *   *
1:09
E|-------------|
B|-------------|
G|-------------|
D|---8----10---|
A|---8-00-10---|
D|---8-00-10---|
       **

1:10    "I was meant to make you smile..."
E|------------------------------------------------------------|
B|------------------------------------------------------------|
G|------------------------------------------------------------|
D|------------------------------------------------------------|
A|--3-00----3h5---3-00--------3-00----3h5---3-00-----3-0-0-5--|
D|--3-00----3h5---3-00--------3-00----3h5---3-00-----3-0-0-5--|
      **            **          **            **       * *

E|----------------------------------------------------|
B|----------------------------------------------------|
G|----------------------------------------------------|
D|-------------------------------------------3h5p3----|
A|--3-00-000-3-00-5-00-6-0--3-00--000-----3h5-----5---|
D|--3-00-000-3-00-5-00-6-0--3-00--000--3h5------------|
      ** ***   **   **   *    **  ***

E|---------------------------------------------|
B|---------------------------------------------|
G|---------------------------------------------|
D|---------------------------------------------|
A|--3-00-000-3-00-5-00-6-0--3-00--000--3-0-0-5-|
D|--3-00-000-3-00-5-00-6-0--3-00--000--3-0-0-5-|
      ** ***   **   **   *    **  ***    * *

E|----------------------------------------------------|
B|----------------------------------------------------|
G|----------------------------------------------------|
D|-------------------------------------------3h5p3----|
A|--3-00-000-3-00-5-00-6-0--3-00--000-----3h5-----5---|
D|--3-00-000-3-00-5-00-6-0--3-00--000--3h5------------|
      ** ***   **   **   *    **  ***

E|---------------------------------------------|
B|---------------------------------------------|
G|---------------------------------------------|
D|---------------------------------------------|
A|--3-00-000-3-00-5-00-6-0--3-00--000--3-0-0-5-|
D|--3-00-000-3-00-5-00-6-0--3-00--000--3-0-0-5-|
      ** ***   **   **   *    **  ***    * *

1:38    "So there's no you and me...."
E|---------------------------------------------------------------------------|
B|---------------------------------------------------------------------------|
G|---10-------9--------10-------14-------12-------15-------------------------|
D|---x-(x14)--x-(x14)--x-(x14)--x--(x8)--x--(x4)--x--(x4)--------------------|
A|---8--------7--------8--------12-------10-------13-------------------------|
D|---------------------------------------------------------------------------|

E|----------------------------------------------------|
B|----------------------------------------------------|
G|---10-------9--------10-------3-------9-------10~---|
D|---x-(x14)--x-(x14)--x-(x14)--x-(x8)--x-(x8)---x----|
A|---8--------7--------8--------1-------7--------8~---|
D|----------------------------------------------------|

2:05
E|-------------------------------------|
B|-------------------------------------|
G|-------------------------------------|
D|-------------------------------------|
A|--000000--00000--00---000000--00000--|
D|--000000--00000--00---000000--00000--|
    ******  *****  **   ******  *****

E|---------------------------------------------|
B|---------------------------------------------|
G|---------------------------------------------|
D|---------------------------------------------|
A|-0-0-0-0--000000--00----0-0-0-0---000000--00-|
D|-0-0-0-0--000000--00----0-0-0-0---000000--00-|
   * * * *  ******  **    * * * *   ******  **

2:18
E|----------------------------|
B|----------------------------|
G|----------------------------|  x2
D|----------------------------|
A|--5"-8"-4"-7"-5"-8"-10"-7"--|
D|----------------------------|

E|----------------------------------------------|
B|----------------------------------------------|
G|----------------------------------------------|
D|------------------------------------------0~--|
A|--000000--00000--00---000000--00000--00---0~--|
D|--111111--11111--11---111111--11111--11---0~--|


2:41    "Now this is over and the world falls upon me..."
E|-----------------------------------------------|
B|-----------------------------------------------|
G|---10-------9-------12-------15-------14-------|
D|---x--(x8)--x-(x8)--x--(x8)--x--(x4)--x--(x4)--|
A|---8--------7-------10-------13-------12-------|
D|-----------------------------------------------|

E|--------------------------------------------------|
B|--------------------------------------------------|
G|---10--------9--------10--------3--------7--------|
D|---x-(x8)----x-(x8)---x--(x8)---x-(x4)---x-(x4)---|
A|---8---------7--------8---------1--------5--------|
D|--------------------------------------------------|

E|-----------------------------------------------|
B|-----------------------------------------------|
G|---10-------9-------12-------15-------14-------|
D|---x--(x8)--x-(x8)--x--(x8)--x--(x4)--x--(x4)--|
A|---8--------7-------10-------13-------12-------|
D|-----------------------------------------------|


E|--------------------------------------------------|
B|--------------------------------------------------|
G|---10--------9--------10--------3--------7--------|
D|---x-(x8)----x-(x8)---x--(x8)---x-(x4)---x-(x4)---|
A|---8---------7--------8---------1--------5--------|
D|--------------------------------------------------|

3:13
E|-------|
B|-------|
G|-------|
D|--0~---|
A|--0~---|
D|--0~---|

I'm pretty confident that's how its played.

If you have any questions/comments/smart remarks email me
john.boyer15@yahoo.com
comments
print report bad tab
19 comments total. Showing first comments.
+1 reply
emolove wrote on November 26 2009, 05:40 pm

pretty great tab man.
keep it comin'.

+1 reply
keny21051995 wrote on December 9 2009, 11:15 pm

gOOD TABD DUDE

0 reply
guitarbumplayer wrote on December 23 2009, 12:13 pm

GREAT TAB DUDE!!! SOUNDS GREAT!!!

I want to post or [tab]
guest
You may want to rate the tab now too:
select rating
Please do not post tabs as comments. Select "correction" instead!