Oops, an error
Loading. Please wait.

If You Cant Ride Two Horses At Once You Should Get Out Of The Circus Bass Tab

version 2
version 2

Whole song

  • In the other bass tab for this song most of the ti... Show more

Interactive

7 views 1 this week
no commentswrite comment
1 2 3 4 5
3 more votes to show rating
add to favorites
launch autoscroll
font size
0
reset
guitar tuner
Autoscroll
slow
fast
+/-
esc
set tempo
stop
Help us to improve Ultimate-Guitar.com Take our survey!
×
Author
Difficulty
Tuning
novice
D A D G B E
About this tab version
In the other bass tab for this song most of the timing was wrong and some of the notes were incorrect too. It probably was easier to do a rewrite than to fix it. Hopefully you enjoy it. Was this info helpful? Yes No
[Intro]

G|---------------------------------------------------------------------------|
D|---------------------------------------------------------------------------|
A|---------------------------------------------------------------------------|
D|---000000-000000-0000-000000-----------------------------------------------| x4

G|---------------------------------------------------------------------------|
D|---------------------------------------------------------------------------|
A|---------------------------------------------------------------------------|
D|---000000-000000-0000-000000-----------------------------------------------|
(Let notes ring for this part)

G|---------------------------------------------------------------------------|
D|---------------------------------------------------------------------------|
A|---------------------------------------------------------------------------|
D|---000000--0000--000000--0000-0000-0000------------------------------------|
                                (^^ these two are the really fast ones)

G|---------------------------------------------------------------------------|
D|---------------------------------------------------------------------------|
A|------------------------------3/5------------------------------------------|
D|---000000--0000--000000--0000-----0----------------------------------------|
(Let last note ring)


[Bridge]

G|---------------------------------------------------------------------------|
D|---------------------------------------------------------------------------|
A|---------------------------------------------------------------------------|
D|---0--0-0--0--0------------------------------------------------------------|
(Let last note ring)

[Verse 1]

G|---------------------------------------------------------------------------|
D|---------------------------------------------------------------------------|
A|---------------------------------------------------------------------------|
D|---0000-000-7050305-80080080-70070070--0000-000-7050305-50050050-30030030--| x2


[Bridge 2]

G|---------------------------------------------------------------------------|
D|---------------------------------------------------------------------------|
A|---------------------------------------------------------------------------|
D|---8-0-0-10--3-0-0--3-5-3-0-0--3-0-0--35-3-0-0--3-0-0-5--------------------|


[Verse 2]

G|---------------------------------------------------------------------------|
D|---------------------------------------------------------------------------|
A|---------------------------------------------------------------------------|
D|---3-0-0-0-0-0-0-3-0-0-5-0-0-6-0-3-0-0-0-0-0-0-0---------------------------| 

G|---------------------------------------------------------------------------|
D|---------------------------------------------------------------------------|
A|---------------------------------------------------------------------------|
D|---3-0-0-0-0-0-0-3-0-0-5-0-0-6-0-3-0-0-0-0-0-0-0-3-0-0-5-------------------|


[Chorus]

G|-------------------------------------------------------------------------------------|
D|-------------------------------------------------------------------------------------|
A|-------------------------------------------------------------------------------------|
D|---0-0-0-0-0-0-0-0-3-3-3-3-3-3-3-3-8-8-8-8-8-8-8-8-3-3-3-3-3-3-3-3-2-2-2-2-2-2-2-2---|

G|-------------------------------------------------------------------------------------|
D|-------------------------------------------------------------------------------------|
A|-------------------------------------------------------------------------------------|
D|---0-0-0-0-0-0-0-0-3-3-3-3-3-3-3-3-8-8-8-8-8-8-8-8-8-8-8-8-8-8-8-8-3-3-3-3-3-3-3-3-0-|


[Verse 3]

G|---------------------------------------------------------------------------|
D|---------------------------------------------------------------------------|
A|---------------------------------------------------------------------------|
D|---000000000--0000000-00--000000000--0000000--0-0-0-0--0000000-00--0-0-0-0-|


G|---------------------------------------------------------------------------|
D|---------------------------------------------------------------------------|
A|---------------------------------------------------------------------------|
D|---0000000--000000000--0000000-00-000000000--0000000-00--------------------|

G|---------------------------------------------------------------------------|
D|---------------------------------------------------------------------------|
A|---------------------------------------------------------------------------|
D|---111111111--1111111-11-111111111--1111111-11-0---10----------------------|
(Let all notes ring)


[Outro]

G|---------------------------------------------------------------------------|
D|---------------------------------------------------------------------------|
A|---55555555--------11111111--------55555555--------1111111111113333--------| x2
D|-----------33333333--------33332222--------33333333------------------------|
Suggest correction
Give kudos to tab author, rate the tab!
1 2 3 4 5
comments
print report bad tab
guest
You may want to rate the tab now too:
select rating
Wanna post a correction for this tab? Suggest correction