Oops, an error
Loading. Please wait.

Just A Slave To Rock N Roll bass

version 1
version 1

Whole song

Interactive

739 views 9 this week
no commentswrite comment
1 2 3 4 5
2 more votes to show rating
add to favorites
×
Save as Personal and add changes to this tab that will be seen only by you. Learn more ›
×
You can save this tab as Personal to edit and correct it or add notes. All changes will be seen only by you. Learn more »
launch autoscroll
font size
0
reset
guitar tuner
edit
Autoscroll
slow
fast
+/-
esc
set tempo
stop
   Intro
E |-----------------------------------------------------------------|
B |-----------------------------------------------------------------|
F#|-----------------------------------------------------------------|
B |-3---0-------------00000---00000-----------------6---6-6-6-6-6-6-|
    1 + 2 + 3 + 4 + 1 + 2 + 3 + 4 + 1 + 2 + 3 + 4 + 1 + 2 + 3 + 4 +

E |-----------------------------------------------------------------|
B |-----------------------------------------------------------------|
F#|-----------------------------------------------------------------|
B |-3---0-------------00000---00000---------------6---6---6-----3-0-|
    1 + 2 + 3 + 4 + 1 + 2 + 3 + 4 + 1 + 2 + 3 + 4 + 1 + 2 + 3 + 4 +

E |-----------------------------------------------------------------|
B |-----------------------------------------------------------------|
F#|-----------------------------------------------------------------|
B |-3---0-----------------------------------------------------------|
    1 + 2 + 3 + 4 + 1 + 2 + 3 + 4 + 1 + 2 + 3 + 4 + 1 + 2 + 3 + 4 +

E |-----------------------------------------------------------------|
B |-----------------------------------------------------------------|
F#|-----------------------------------------------------------------|
B |-0---------------------------------------------6---6---6-----3-0-|
    1 + 2 + 3 + 4 + 1 + 2 + 3 + 4 + 1 + 2 + 3 + 4 + 1 + 2 + 3 + 4 +

E |-----------------------------------------------------------------|
B |-----------------------------------------------------------------|
F#|-----------------------------------------------------------------|
B |-3---0-3-0-5-0-6-0-3-0-5-0-5-6---0---0-3-0-5-6---56--6-5-3-5-3---|
    1 + 2 + 3 + 4 + 1 + 2 + 3 + 4 + 1 + 2 + 3 + 4 + 1 + 2 + 3 + 4 +

E |-----------------------------------------------------------------|
B |-----------------------------------------------------------------|
F#|-----------------------------------------------------------------|
B |-3---0-3-0-5-0-6-0-3-0-5-0-5-6---0---0-3-0-5-6-------------------|
    1 + 2 + 3 + 4 + 1 + 2 + 3 + 4 + 1 + 2 + 3 + 4 + 1 + 2 + 3 + 4 +

   Verse
E |-----------------------------------------------------------------|
B |-----------------------------------------------------------------|
F#|-----------------------------------------------------------------|
B |-0---0-3-0-5-0-6-----000-0-000-0-0---0-3-0-5-0-6-----5-6-5---3-5-|
    1 + 2 + 3 + 4 + 1 + 2 + 3 + 4 + 1 + 2 + 3 + 4 + 1 + 2 + 3 + 4 +

E |-----------------------------------------------------------------|
B |-----------------------------------------------------------------|
F#|-----------------------------------------------------------------|
B |-3---0-3-0-5-0-6-----000-0-000-0-0---0-3-0-5-0-6-----5-6-5---3-5-|
    1 + 2 + 3 + 4 + 1 + 2 + 3 + 4 + 1 + 2 + 3 + 4 + 1 + 2 + 3 + 4 +

   Pre-Chorus
E |-----------------------------------------------------------------|
B |-----------------------------------------------------------------|
F#|-----------------------------------------------------------------|
B |-3---0-3-0-5-0-6-0-5-0-3-0-2-3---0---0-3-0-5-6-6-----00000---000-|
    1 + 2 + 3 + 4 + 1 + 2 + 3 + 4 + 1 + 2 + 3 + 4 + 1 + 2 + 3 + 4 +

E |-----------------------------------------------------------------|
B |-----------------------------------------------------------------|
F#|---------------------------------5---5---3---3---1---1---0---0-0-|
B |-----003-0-5-0-6-0-5-0-3-0-2-3-----------------------------------|
    1 + 2 + 3 + 4 + 1 + 2 + 3 + 4 + 1 + 2 + 3 + 4 + 1 + 2 + 3 + 4 +

E |-----------------------------------------------------------------|
B |-----------------------------------------------------------------|
F#|-0-1-----------------------------0-------------------------------|
B |-----------------------------------------------------------------|
    1 + 2 + 3 + 4 + 1 + 2 + 3 + 4 + 1 + 2 + 3 + 4 + 1 + 2 + 3 + 4 +

   Chorus x2
E |------------------------------------------------------------------|
B |o-----------------------------------------------------------------|
F#|o---------------------------------0-0-0-0-0-0-0-0-0-0-0-0-0-0-0-0-|
B |--3-3-3-3-3-3-3-3-3-3-3-3-3-3-3-3---------------------------------|
     1 + 2 + 3 + 4 + 1 + 2 + 3 + 4 + 1 + 2 + 3 + 4 + 1 + 2 + 3 + 4 +

E |------------------------------------------------------------------|
B |-----------------------------------------------------------------o|
F#|-5-5-5-5-5-5-5-5-3-3-3-3-3-3-3-3-1-1-1-1-1-1-1-1-1-1-1-1-1-1-1-1-o|
B |------------------------------------------------------------------|
    1 + 2 + 3 + 4 + 1 + 2 + 3 + 4 + 1 + 2 + 3 + 4 + 1 + 2 + 3 + 4 +

E |---------------------------------|
B |---------------------------------|
F#|-0-------------------------------|
B |-----------------5-----8-----7---|
    1 + 2 + 3 + 4 + 1 + 2 + 3 + 4 +

   Post Chorus
E |-----------------------------------------------------------------|
B |-----------------------------------------------------------------|
F#|-----------------------------------------------------------------|
B |-3---0-3-0-5-0-6-0-3-0-5-0-5-6---0---0-3-0-5-6---56--6-5-3-5-3---|
    1 + 2 + 3 + 4 + 1 + 2 + 3 + 4 + 1 + 2 + 3 + 4 + 1 + 2 + 3 + 4 +

E |-----------------------------------------------------------------|
B |-----------------------------------------------------------------|
F#|-----------------------------------------------------------------|
B |-3---0-3-0-5-0-6-0-3-0-5-0-5-6---0---0-3-0-5-6-------------------|
    1 + 2 + 3 + 4 + 1 + 2 + 3 + 4 + 1 + 2 + 3 + 4 + 1 + 2 + 3 + 4 +

   Verse
E |-----------------------------------------------------------------|
B |-----------------------------------------------------------------|
F#|-----------------------------------------------------------------|
B |-0---0-3-0-5-0-6-----000-0-000-0-0---0-3-0-5-0-6-----5-6-5---3-5-|
    1 + 2 + 3 + 4 + 1 + 2 + 3 + 4 + 1 + 2 + 3 + 4 + 1 + 2 + 3 + 4 +

E |-----------------------------------------------------------------|
B |-----------------------------------------------------------------|
F#|-----------------------------------------------------------------|
B |-3---0-3-0-5-0-6-----000-0-000-0-0---0-3-0-5-0-6-----5-6-5---3-5-|
    1 + 2 + 3 + 4 + 1 + 2 + 3 + 4 + 1 + 2 + 3 + 4 + 1 + 2 + 3 + 4 +

   Pre-Chorus
E |-----------------------------------------------------------------|
B |-----------------------------------------------------------------|
F#|-----------------------------------------------------------------|
B |-3---0-3-0-5-0-6-0-5-0-3-0-2-3---0---0-3-0-5-6-6-----00000---000-|
    1 + 2 + 3 + 4 + 1 + 2 + 3 + 4 + 1 + 2 + 3 + 4 + 1 + 2 + 3 + 4 +

E |-----------------------------------------------------------------|
B |-----------------------------------------------------------------|
F#|---------------------------------5---5---3---3---1---1---0---0-0-|
B |-----003-0-5-0-6-0-5-0-3-0-2-3-----------------------------------|
    1 + 2 + 3 + 4 + 1 + 2 + 3 + 4 + 1 + 2 + 3 + 4 + 1 + 2 + 3 + 4 +

E |-----------------------------------------------------------------|
B |-----------------------------------------------------------------|
F#|-0-1-----------------------------0-------------------------------|
B |-----------------------------------------------------------------|
    1 + 2 + 3 + 4 + 1 + 2 + 3 + 4 + 1 + 2 + 3 + 4 + 1 + 2 + 3 + 4 +

   Chorus x2
E |------------------------------------------------------------------|
B |o-----------------------------------------------------------------|
F#|o---------------------------------0-0-0-0-0-0-0-0-0-0-0-0-0-0-0-0-|
B |--3-3-3-3-3-3-3-3-3-3-3-3-3-3-3-3---------------------------------|
     1 + 2 + 3 + 4 + 1 + 2 + 3 + 4 + 1 + 2 + 3 + 4 + 1 + 2 + 3 + 4 +

E |------------------------------------------------------------------|
B |-----------------------------------------------------------------o|
F#|-5-5-5-5-5-5-5-5-3-3-3-3-3-3-3-3-1-1-1-1-1-1-1-1-1-1-1-1-1-1-1-1-o|
B |------------------------------------------------------------------|
    1 + 2 + 3 + 4 + 1 + 2 + 3 + 4 + 1 + 2 + 3 + 4 + 1 + 2 + 3 + 4 +

E |---------------------------------|
B |---------------------------------|
F#|-0-------------------------------|
B |-----------------5-----8-----7---|
    1 + 2 + 3 + 4 + 1 + 2 + 3 + 4 +

   Bridge
E |-----------------------------------------------------------------|
B |-----------------------------------------------------------------|
F#|-----------------------------------------------------------------|
B |-0---------------------------------------------------------0-0---|
    1 + 2 + 3 + 4 + 1 + 2 + 3 + 4 + 1 + 2 + 3 + 4 + 1 + 2 + 3 + 4 +

E |-----------------------------------------------------------------|
B |-----------------------------------------------------------------|
F#|-----------------------------------------------------------------|
B |-0---------------------------------------------------------------|
    1 + 2 + 3 + 4 + 1 + 2 + 3 + 4 + 1 + 2 + 3 + 4 + 1 + 2 + 3 + 4 +

Rest

   Outro
E |-----------------------------------------------------------------|
B |-----------------------------------------------------------------| 
F#|-----------------------------------------------------------------|
B |-3---0-------------00000---00000---------------6---6---6---------|
    1 + 2 + 3 + 4 + 1 + 2 + 3 + 4 + 1 + 2 + 3 + 4 + 1 + 2 + 3 + 4 +

E |-----------------------------------------------------------------|
B |-----------------------------------------------------------------|
F#|-----------------------------------------------------------------|
B |-6-----0-0-000---------0-0-000-0-6-----0-0-000-------5-6-5---3-5-|
    1 + 2 + 3 + 4 + 1 + 2 + 3 + 4 + 1 + 2 + 3 + 4 + 1 + 2 + 3 + 4 +

E |-----------------------------------------------------------------|
B |-----------------------------------------------------------------|
F#|-----------------------------------------------------------------|
B |-3---1-1-111-1-1-----------------1-1---1---1---------------------|
    1 + 2 + 3 + 4 + 1 + 2 + 3 + 4 + 1 + 2 + 3 + 4 + 1 + 2 + 3 + 4 +

E |-----------------------------------------------------------------|
B |-----------------------------------------------------------------|
F#|-----------------------------------------------------------------|
B |-1-1---1---1---------------0-----0-0---0---0---------------------|
    1 + 2 + 3 + 4 + 1 + 2 + 3 + 4 + 1 + 2 + 3 + 4 + 1 + 2 + 3 + 4 +

E |-----------------------------------------------------------------|
B |---------------------------------I----------A------------DRINK---|
F#|-------------------------------------NEED-------FUCKIN-----------|
B |-0-0---0---0-------00000---00000---------------------------------|
    1 + 2 + 3 + 4 + 1 + 2 + 3 + 4 + 1 + 2 + 3 + 4 + 1 + 2 + 3 + 4 +

Tabbed By Jack Mills

            
            
Suggest correction
Creating personal tab
Creating personal tab
You can edit any tab online and save it as your Personal.

You can edit, replace or remove any tab part or add personal notes – all changes will be seen only by you.

Personal tabs can be accessed anytime from any device, even offline.
Learn more »
Give kudos to tab author, rate the tab!
1 2 3 4 5
comments
print report bad tab
guest
You may want to rate the tab now too:
select rating
Wanna post a correction for this tab? Suggest correction