Oops, an error
Loading. Please wait.

Let It Sleep bass

version 1
version 1

Whole song

Interactive

640 views 3 this week
no commentswrite comment
1 2 3 4 5
2 more votes to show rating
add to favorites
×
Save as Personal and add changes to this tab that will be seen only by you. Learn more ›
×
You can save this tab as Personal to edit and correct it or add notes. All changes will be seen only by you. Learn more »
launch autoscroll
font size
0
reset
guitar tuner
edit
Autoscroll
slow
fast
+/-
esc
set tempo
stop
   Verse
E |-------------------------------------------------------------------|
B |o-------------------------------------------------5-------7---5---o|
F#|o-5-5-5-5-----------------8-8-8-8-------------------6-5-6---6---6-o|
B |------------0-0-0-0-0-0-0-----------0-0-0-0-0-0-0------------------|x2
     1 e + a 2 e + a 3 e + a 4 e + a 1 e + a 2 e + a 3 e + a 4 e + a

E |-----------------------------------------------------------------|
B |-------------------------------------------------5-------7---5---|
F#|---------------------------------------------------6-5-6---6---6-|
B |-0-0-0-0---0---0-0-0-0---0-0-0-0---0---0-0-0-0-------------------|
    1 e + a 2 e + a 3 e + a 4 e + a 1 e + a 2 e + a 3 e + a 4 e + a
 
E |-----------------------------------------------------------------|
B |-------------------------------------------------5---------------|
F#|---------------------------------------------------6-5-6---------|
B |-0-0-0-0---0---0-0-0-0---0-0-0-0---0---0-0-0-0-------------------|
    1 e + a 2 e + a 3 e + a 4 e + a 1 e + a 2 e + a 3 e + a 4 e + a

Rest

E |-----------------------------------------------------------------|
B |---------------------------------5-------------------------------|
F#|-------------------3-3-5-5---------6-5-6-6-5-6-----3-3-5-5-------|
B |-0-0-0-0-0-0---0-----------0-------------------0-----------0-----|
    1 e + a 2 e + a 3 e + a 4 e + a 1 e + a 2 e + a 3 e + a 4 e + a

E |-----------------------------------------------------------------|
B |---------------------------------5-------------------------------|
F#|-------------------3-3-5-5---------6-5-6-6-5-6-----5-5-3-6-5-3-5-|
B |-0-0-0-0-0-0---0-----------0-------------------0-----------------|
    1 e + a 2 e + a 3 e + a 4 e + a 1 e + a 2 e + a 3 e + a 4 e + a

   Breakdown
E |-----------------------------------------------------------------|
B |-----------------------------------------------------------------|
F#|-----------------------------------------------------------------|
B |-1-1-1-1---1---1-1-1-1-1---1---1-1-1-1---------------1---1-1-----|
    1 e + a 2 e + a 3 e + a 4 e + a 1 e + a 2 e + a 3 e + a 4 e + a

E |-----------------------------------------------------------------|
B |-----------------------------------------------------------------|
F#|-----------------------------------------------------------------|
B |-1-1-1-1---1---1-1-1-1-1---1---1-1-1-1---------------------------|
    1 e + a 2 e + a 3 e + a 4 e + a 1 e + a 2 e + a 3 e + a 4 e + a

   Verse
E |-------------------------------------------------------------------|
B |o-------------------------------------------------5-------7---5---o|
F#|o-5-5-5-5-----------------8-8-8-8-------------------6-5-6---6---6-o|
B |------------0-0-0-0-0-0-0-----------0-0-0-0-0-0-0------------------|x2
     1 e + a 2 e + a 3 e + a 4 e + a 1 e + a 2 e + a 3 e + a 4 e + a

E |-----------------------------------------------------------------|
B |-------------------------------------------------5-------7---5---|
F#|---------------------------------------------------6-5-6---6---6-|
B |-0-0-0-0---0---0-0-0-0---0-0-0-0---0---0-0-0-0-------------------|
    1 e + a 2 e + a 3 e + a 4 e + a 1 e + a 2 e + a 3 e + a 4 e + a
 
E |-----------------------------------------------------------------|
B |-------------------------------------------------5---------------|
F#|---------------------------------------------------6-5-6---------|
B |-0-0-0-0---0---0-0-0-0---0-0-0-0---0---0-0-0-0-------------------|
    1 e + a 2 e + a 3 e + a 4 e + a 1 e + a 2 e + a 3 e + a 4 e + a

Rest

   Chorus
E |-----------------------------------------------------------------|
B |-----------------------------------------------------------------|
F#|-----------------------------------------------------------------|
B |-0-0-0-0---0---0-0-0-0-0---0---0-0-0-0-0---0---0-0-0-0---0-0-0---|
    1 e + a 2 e + a 3 e + a 4 e + a 1 e + a 2 e + a 3 e + a 4 e + a

E |-----------------------------------------------------------------|
B |-----------------------------------------------------------------|
F#|-----------------------------------------------------------------|
B |-8-8-8-8---8---8-8-8-8-8---8---8-8-8-8-8---8---8-8-8-8---8-8-8---|
    1 e + a 2 e + a 3 e + a 4 e + a 1 e + a 2 e + a 3 e + a 4 e + a

E |-----------------------------------------------------------------|
B |-----------------------------------------------------------------|
F#|-----------------------------------------------------------------|
B |-0-0-0-0---0---0-0-0-0-0---0---0-0-0-0-0---0---0-0-0-0---0-0-0---|
    1 e + a 2 e + a 3 e + a 4 e + a 1 e + a 2 e + a 3 e + a 4 e + a

E |-----------------------------------------------------------------|
B |-----------------------------------------------------------------|
F#|-----------------------------------------------------------------|
B |-8-8-8-8---8---8-8-8-8-8---8---8-7-7-7-7---7---7-5-5-5-5-5-5-5-5-|
    1 e + a 2 e + a 3 e + a 4 e + a 1 e + a 2 e + a 3 e + a 4 e + a

E |-------------------------------------------------------------------|
B |o-----------------------------------------------------------------o|
F#|o-----------------------------------------------------------------o|
B |--0-0-0-0-0-0-0-0-8-8-8-8-8-8-8-8-5-5-5-5-5-5-5-5-3-3-3-3-2-2-2-2--|x2
     1 + 2 + 3 + 4 + 1 + 2 + 3 + 4 + 1 + 2 + 3 + 4 + 1 + 2 + 3 + 4 +

   Verse
E |-------------------------------------------------------------------|
B |o-------------------------------------------------5-------7---5---o|
F#|o-5-5-5-5-----------------8-8-8-8-------------------6-5-6---6---6-o|
B |------------0-0-0-0-0-0-0-----------0-0-0-0-0-0-0------------------|x2
     1 e + a 2 e + a 3 e + a 4 e + a 1 e + a 2 e + a 3 e + a 4 e + a

E |-----------------------------------------------------------------|
B |-------------------------------------------------5-------7---5---|
F#|---------------------------------------------------6-5-6---6---6-|
B |-0-0-0-0---0---0-0-0-0---0-0-0-0---0---0-0-0-0-------------------|
    1 e + a 2 e + a 3 e + a 4 e + a 1 e + a 2 e + a 3 e + a 4 e + a
 
E |-----------------------------------------------------------------|
B |-------------------------------------------------5---------------|
F#|---------------------------------------------------6-5-6---------|
B |-0-0-0-0---0---0-0-0-0---0-0-0-0---0---0-0-0-0-------------------|
    1 e + a 2 e + a 3 e + a 4 e + a 1 e + a 2 e + a 3 e + a 4 e + a

E |-----------------------------------------------------------------|
B |-----------------------------------------------------------------|
F#|-----------------------------------------------------------------|
B |-0---------------------------------------------------------------|
    1 2 3 4 1 2 3 4 1 2 3 4 1 2 3 4 1 2 3 4 1 2 3 4 1 2 3 4 1 2 3 4

   ATTILA MODE!
E |-----------------------------------------------------------------|
B |-----------------------------------------------------------------|
F#|-----------------------------------------------------------------|
B |-1-1-1-1---1---1---------1-1-1-1---1---1---------1-1-1-1---1---1-|
    1 e + a 2 e + a 3 e + a 4 e + a 1 e + a 2 e + a 3 e + a 4 e + a

E |-----------------------------------------------------------------|
B |-----------------7---5-------------------------------------------|
F#|---------5-3-5-6---5---5-----------------------------------------|
B |-------------------------1-1-1-1---1---1---------1-1-1-1---1---1-|
    1 e + a 2 e + a 3 e + a 4 e + a 1 e + a 2 e + a 3 e + a 4 e + a

E |-----------------------------------------------------------------|
B |-----------------------------------------7---5-------------------|
F#|---------------------------------5-3-5-6---5---5-----------------|
B |---------1-1-1-1---1---1-------------------------0-0-0-0---0---0-|
    1 e + a 2 e + a 3 e + a 4 e + a 1 e + a 2 e + a 3 e + a 4 e + a

E |-----------------------------------------------------------------|
B |-----------------------------------------------------------------|
F#|---------------------------------------------------------5-3-5-6-|
B |---------0-0-0-0---0---0---------0-0-0-0---0---0-----------------|
    1 e + a 2 e + a 3 e + a 4 e + a 1 e + a 2 e + a 3 e + a 4 e + a

E |-----------------------------------------------------------------|
B |-7---5-----------------------------------------------------------|
F#|---5---7---------------------------------------------------------|
B |---------0-0-0-0---0---0---------0-0-0-0---0---0---------0-0-0-0-|
    1 e + a 2 e + a 3 e + a 4 e + a 1 e + a 2 e + a 3 e + a 4 e + a

E |-----------------------------------------------------------------|
B |-------------------------7---5-----------------------------------|
F#|-----------------5-3-5-6---5---5---------------------------------|
B |---0---0-------------------------8---------------5---------------|
    1 e + a 2 e + a 3 e + a 4 e + a 1 e + a 2 e + a 3 e + a 4 e + a

E |---------------------------------|
B |---------------------------------|
F#|---------------------------------|
B |-0-------------------------------|
    1 e + a 2 e + a 3 e + a 4 e + a

   Chorus
E |-----------------------------------------------------------------|
B |-----------------------------------------------------------------|
F#|-----------------------------------------------------------------|
B |-0-0-0-0---0---0-0-0-0-0---0---0-0-0-0-0---0---0-0-0-0---0-0-0---|
    1 e + a 2 e + a 3 e + a 4 e + a 1 e + a 2 e + a 3 e + a 4 e + a

E |-----------------------------------------------------------------|
B |-----------------------------------------------------------------|
F#|-----------------------------------------------------------------|
B |-8-8-8-8---8---8-8-8-8-8---8---8-8-8-8-8---8---8-8-8-8---8-8-8---|
    1 e + a 2 e + a 3 e + a 4 e + a 1 e + a 2 e + a 3 e + a 4 e + a

E |-----------------------------------------------------------------|
B |-----------------------------------------------------------------|
F#|-----------------------------------------------------------------|
B |-0-0-0-0---0---0-0-0-0-0---0---0-0-0-0-0---0---0-0-0-0---0-0-0---|
    1 e + a 2 e + a 3 e + a 4 e + a 1 e + a 2 e + a 3 e + a 4 e + a

E |-----------------------------------------------------------------|
B |-----------------------------------------------------------------|
F#|-----------------------------------------------------------------|
B |-8-8-8-8---8---8-8-8-8-8---8---8-7-7-7-7---7---7-5-5-5-5-5-5-5-5-|
    1 e + a 2 e + a 3 e + a 4 e + a 1 e + a 2 e + a 3 e + a 4 e + a

E |-------------------------------------------------------------------|
B |o-----------------------------------------------------------------o|
F#|o-----------------------------------------------------------------o|
B |--0-0-0-0-0-0-0-0-8-8-8-8-8-8-8-8-5-5-5-5-5-5-5-5-3-3-3-3-2-2-2-2--|x2
     1 + 2 + 3 + 4 + 1 + 2 + 3 + 4 + 1 + 2 + 3 + 4 + 1 + 2 + 3 + 4 +

E |-----------------------------------------------------------------|
B |-----------------------------------------------------------------|
F#|-----------------------------------------------------------------|
B |-0---------------------------------------------------------------|
    1 + 2 + 3 + 4 + 1 + 2 + 3 + 4 + 1 + 2 + 3 + 4 + 1 + 2 + 3 + 4 +

   Outro
E |-----------------------------------------------------------------|
B |---------------------------------5-------------------------------|
F#|-------------------3-3-5-5---------6-5-6-6-5-6-----3-3-5-5-------|
B |-0-0-0-0-0-0---0-----------0-------------------0-----------0-----|
    1 e + a 2 e + a 3 e + a 4 e + a 1 e + a 2 e + a 3 e + a 4 e + a

E |-----------------------------------------------------------------|
B |---------------------------------5-------------------------------|
F#|-------------------3-3-5-5---------6-5-6-6-5-6-----5-5-3-6-5-3-5-|
B |-0-0-0-0-0-0---0-----------0-------------------0-----------------|
    1 e + a 2 e + a 3 e + a 4 e + a 1 e + a 2 e + a 3 e + a 4 e + a

E |-----------------------------------------------------------------|
B |---------------------------------5-------------------------------|
F#|-------------------3-3-5-5---------6-5-6-6-5-6-----3-3-5-5-------|
B |-0-0-0-0-0-0---0-----------0-------------------0-----------0-----|
    1 e + a 2 e + a 3 e + a 4 e + a 1 e + a 2 e + a 3 e + a 4 e + a

E |-----------------------------------------------------------------|
B |---------------------------------5-------------------------------|
F#|-------------------3-3-5-5---------6-5-6-6-5-6-------------------|
B |-0-0-0-0-0-0---0-----------0-------------------0---0-0-0---0-0-0-|
    1 e + a 2 e + a 3 e + a 4 e + a 1 e + a 2 e + a 3 e + a 4 e + a

Tabbed By Jack Mills

            
            
Suggest correction
Creating personal tab
Creating personal tab
You can edit any tab online and save it as your Personal.

You can edit, replace or remove any tab part or add personal notes – all changes will be seen only by you.

Personal tabs can be accessed anytime from any device, even offline.
Learn more »
Give kudos to tab author, rate the tab!
1 2 3 4 5
comments
print report bad tab
guest
You may want to rate the tab now too:
select rating
Wanna post a correction for this tab? Suggest correction