Oops, an error
Loading. Please wait.

Lets Change The Channel Bass Tab

472 views 1 this week
no commentswrite comment
1 2 3 4 5
please rate
add to favorites
launch autoscroll
font size
0
reset
guitar tuner
Autoscroll
slow
fast
+/-
esc
set tempo
stop
Help us to improve Ultimate-Guitar.com Take our survey!
×
Author
Difficulty
intermediate
Notice: This is my first tab EVER!Hope it's decent enough for you guys!

Tuning:
DADG
--------------------------------------------------------------------------|
--------------------------------------------------------------------------|
--------------------------------------------------------------------------|
-0~~~~~~~~~~~~~~~~~~~~-0~~~~~~~12///////////////0-------------------------|

----------------------------------------|
----------------------------------------|
----------------------------------------|
-00000000000000-------------------------|
                           O......M......G.....

----------------------------------------------|
----------------------------------------------|
-----------------8----7---10--8--7h8----------|
-00000000000000----00--00---0--0--------------|

----------------------------------------------|
-----------------7----------------------------|
----------------------10----8--10---8---------|
-88888888888888----00----00---0---0-----------|

----------------------------------------------|
----------------------------------------------|
------------------10----8---7--8--7-----------|
-77777777777777------00--00--0--0-------------|

----------------------------------------|
----------------------------------------|
----------------------------------------|
-00000000000000-------------------------|
                           O......M......G.....

----------------------------------------------|
----------------------------------------------|
-----------------8----7---10--8--7h8----------|
-00000000000000----00--00---0--0--------------|

----------------------------------------------|
-----------------7----------------------------|
----------------------10----8--10---8---------|
-88888888888888----00----00---0---0-----------|

----------------------------------------------|
----------------------------------------------|
------------------10----8---7--8--7-----------|
-77777777777777------00--00--0--0-------------|

-------------------------------------------------------|
-------------------------------------------------------|
-8----7----10---8---7h8-8----7----10---8---7h8---------|
---00--00-----0---0--------00--00-----0---0------------|

-------------------------------------------------------|
-7-----------------------------------------------------|
-------10-----8----10----8--10-----8----7---8---7------|
---00-----00----0-----0---------00---00---0---0--------|

-------------------------------------------------------|
-------------------------------------------------------|
-8----7----10---8---7h8-8----7----10---8---7h8---------|
---00--00-----0---0--------00--00-----0---0------------|

-------------------------------------------------------|
-7-----------------------------------------------------|
-------10-----8----10----8--10-----8----7---8---7------|
---00-----00----0-----0---------00---00---0---0--------|

-------------------------------------------------------|
-------------------------------------------------------|
-8----7----10---8---7h8-8----7----10---8---7h8---------|
---00--00-----0---0--------00--00-----0---0------------|

-------------------------------------------------------|
-7-----------------------------------------------------|
-------10-----8----10----8--10-----8----7---8---7------|
---00-----00----0-----0---------00---00---0---0--------|

-------------------------------------------------------|
-------------------------------------------------------|
-8----7----10---8---7h8-8----7----10---8---7h8---------|
---00--00-----0---0--------00--00-----0---0------------|

-------------------------------------------------------|
-7-----------------------------------------------------|
-------10-----8----10----8--10-----8----7---8---7------|
---00-----00----0-----0---------00---00---0---0--------|

----------------------------------------|
----------------------------------------|
----------------------------------------|
-00000000000000-------------------------|
                           O......M......G.....

-----------------------------------------------|
-----------------------------------------------|
------------------8---7--10--8--7h8------------|
-00000000000000----00--00---0--0---------------|

-----------------------------------------------|
-----------------7-----------------------------|
----------------------10----8---10---8---------|
-88888888888888----00----00---0---0------------|

-----------------------------------------------|
-----------------------------------------------|
-------------------10---8--7--8--7-------------|
-77777777777777------00--00--0--0--------------|

----------------------------------------|
----------------------------------------|
----------------------------------------|
-00000000000000-------------------------|
                           O......M......G.....

----------------------------------------------|
----------------------------------------------|
-----------------8----7---10--8--7h8----------|
-00000000000000----00--00---0--0--------------|

----------------------------------------------|
-----------------7----------------------------|
----------------------10----8--10---8---------|
-88888888888888----00----00---0---0-----------|

-----------------------------------------------|
-----------------------------------------------|
------------------10----8---7--8--7------------|
-77777777777777------00--00--0--0--------------|

--------------------------------------------------------------|
--------------------------------------------------------------|
--------------------------------------------------------------|
--0--0000-7--7777-8--8888-8--8888-5--5555-5--5555-------------|

------------------------------------------------|
------------------------------------------------|
----8--7h8-----8--7h8----8--7h8--788887---------|
-00--0------00--0------00--0--------------------|

--------------------------------------------------------------|
--------------------------------------------------------------|
--------------------------------------------------------------|
--0--0000-7--7777-8--8888-8--8888-5--5555-5--5555-------------|

------------------------------------------------|
------------------------------------------------|
----8--7h8-----8--7h8----8--7h8--788887---------|
-00--0------00--0------00--0--------------------|

I'm sure you guys can figure out the rest. :)
Suggest correction
Give kudos to tab author, rate the tab!
1 2 3 4 5
comments
print report bad tab
guest
You may want to rate the tab now too:
select rating
Wanna post a correction for this tab? Suggest correction