Oops, an error
Loading. Please wait.

Morte Et Dabo Tab

version 3
version 3

Whole song

5,655 views 3 this week
no commentswrite comment
1 2 3 4 5
accurate
x 5
add to favorites
launch autoscroll
font size
0
reset
how to read this tab
guitar tuner
Tab Pro tools
  • play this tab
  • loop segment
  • change instrument
  • show fretboard
  • metronome
×
Best way to learn
"Morte Et Dabo"
Autoscroll
slow
fast
+/-
esc
set tempo
stop
Contributor
So, this is my first tab.  This is my favorite song off the album, and after looking up tabs
for it (which were almost completely correct), I learned it and tweaked it to the way that
AA plays it.
I've been meaning to put this up, as I have had the tab written out since I bought the album
[Reckless & Relentless] in April.  
So here it is in it's entirety, "Morte et Dabo" by Asking Alexandria.

Feel free to leave me feedback and don't forget to rate!

=============================================================================
Drop C

Guitar I - 'Ben'
Guitar II - 'Cameron'

LEGEND
------
. = palm mute
~ = let note ring
x = dead note
/ = slide up
\ = slide down
=============================================================================

Guitar I
D|-----------------------------------------------------------------|
A|-----------------------------------------------------------------|
F|-----------------------------------------------------------------|
C|-----------5-----------------------------------------------------|
G|-5-----0-------8-----------------5-----0---1---------------------|
C|---0-0---0---0---0-0-0-0-0-0-0-0---0-0---0---0-0-4-4-4-4-3-3-3-3-|(x4)
     . .   .   .   . . . . . . . .   . .   .   . .

Guitar II
D|-----------------------------------------------------------------|
A|-----------------------------------------------------------------|
F|-----------------------------------------------------------------|
C|-----------5-----------------------------------------------------|
G|-5-----0-------8-----------------5-----0---1---------------------|
C|---0-0---0---0---0-0-0-0-0-0-0-0---0-0---0---0-0-8-8-8-8-7-7-7-7-|(x4)
     . .   .   .   . . . . . . . .   . .   .   . .

Guitar I & II          | x2 |                         
D|---------------------------------------------------|----|
A|---------------------------------------------------|----|
F|---------------------------------------------------|----|
C|---------------------------------------------------|----| on last time
G|-0-0-0-0--0-0--0-0--0-0-0--0-0-0-0--0-0--0-0--0-0--|-0~-|
C|-1-1-1-1~-1-1~-1-1~-1-1-1~-1-1-1-1~-1-1~-1-1~-1-1~-|-1~-|
   . . . .  . .  . .  . . .  . . . .  . .  . .  . .    .

Guitar I
D|-----------------------------------------------------------------|
A|-----------------------------------------------------------------|
F|-----------------------------------------------------------------|
C|-----------5-----------------------------------------------------|
G|-5-----0-------8-----------------5-----0---1---------------------|
C|---0-0---0---0---0-0-0-0-0-0-0-0---0-0---0---0-0-4-4-4-4-3-3-3-3-|(x4)
     . .   .   .   . . . . . . . .   . .   .   . .

Guitar II
D|-----------------------------------------------------------------|
A|-----------------------------------------------------------------|
F|-----------------------------------------------------------------|
C|-----------5-----------------------------------------------------|
G|-5-----0-------8-----------------5-----0---1---------------------|
C|---0-0---0---0---0-0-0-0-0-0-0-0---0-0---0---0-0-8-8-8-8-7-7-7-7-|(x4)
     . .   .   .   . . . . . . . .   . .   .   . .

Guitar I
D|--------------------------------------------------------------------|
A|--------------------------------------------------------------------|
F|-14-------14\12------14-------14\10-------10/12------10------9------|
C|--x-(x24)--x--x-(x8)--x-(x24)--x--x-(x24)--x--x-(x8)--x-(x8)-x-(x4)-|
G|-12-------12\10------12-------12\-8--------8/10-------8------7------|
C|--------------------------------------------------------------------|

D|-----------------------------|
A|-----------------------------|
F|-10------12------14------14~-|
C|--x-(x4)--x-(x4)--x-(x4)--x--|
G|--8------10------12------12~-|
C|-----------------------------|

Guitar II
D|--------------------------------------------------------------------|
A|--------------------------------------------------------------------|
F|-10-------10\-5------10-------10\-5----------5--------------12------|
C|--x-(x24)--x--x-(x8)--x-(x24)--x--x-(x24)-3/-x-(x8)-3/-(x8)--x-(x4)-|
G|--8--------8\-3-------8--------8\-3-------3/-3------3/------10------|
C|------------------------------------------3/--------3/--------------|

D|---------------------------|
A|---------------------------|
F|--------5------10------10~-|
C|-3-(x4)-x-(x4)--x-(x4)--x--|
G|-3------3-------8-------8~-|
C|-3-------------------------|

Guitar I
D|------------------------------------------------------------|
A|------------------------------------------------------------|
F|------------------------------------------------------------|
C|------------------------------------------------------------|
G|-00000-0000000-000-0000-10-10-10-10-6-6-6-6-9-9-9-9-5-5-5-5-|
C|-00000-0000000-000-0000-------------------------------------|
   ..... ....... ... ....

Guitar II
D|--------------------------------------------------------|
A|--------------------------------------------------------|
F|--------------------------------------------------------|
C|------------------------8-8-8-8-4-4-4-4-7-7-7-7-3-3-3-3-|
G|-00000-0000000-000-0000---------------------------------|
C|-00000-0000000-000-0000---------------------------------|
   ..... ....... ... ....

Guitar I & II
D|-------------------------------------|
A|-------------------------------------|
F|-------------------------------------|
C|-------------------------------------|
G|-00000-0000000-000-00000-000-000-000-|
C|-00000-0000000-000-00000-000-000-000-|
   ..... ....... ... ..... ... ... ...

Guitar I
D|----------------------------------------------------------------|
A|----------------------------------------------------------------|
F|----------------------------------------------------------------|
C|----------------------------------------------------------------|
G|-00000~-0000000~-000~-0000~-10-10-10-10-6-6-6-6-9-9-9-9-5-5-5-5-|
C|-00000~-0000000~-000~-0000~-------------------------------------|
   .....  .......  ...  ....

Guitar II
D|------------------------------------------------------------|
A|------------------------------------------------------------|
F|------------------------------------------------------------|
C|----------------------------8-8-8-8-4-4-4-4-7-7-7-7-3-3-3-3-|
G|-00000~-0000000~-000~-0000~---------------------------------|
C|-00000~-0000000~-000~-0000~---------------------------------|
   .....  .......  ...  ....

Guitar I & II
D|-------------------------------------|
A|-------------------------------------|
F|-------------------------------------|
C|-------------------------------------|
G|-00000-0000000-000-00000-000-000-000-|
C|-00000-0000000-000-00000-000-000-000-|
   ..... ....... ... ..... ... ... ... 

Guitar I & II
D|--------------------------|
A|--------------------------|
F|--------------------------|
C|--------------------------|
G|-0-0--0----0--0-0--0-0--0-|
C|-0-0--0----0--0-0--0-0--0-|(x2)
   . .  .    .  . .  . .  .

D|--------------------------------|
A|--------------------------------|
F|--------------------------------|
C|--------------------------------|
G|-0-0~--0~----0~--0-0~--0-0~--0~-|
C|-1-1~--1~----1~--1-1~--1-1~--1~-|(x2)
   . .   .     .   . .   . .   .

Guitar I & II
D|------------------------------------|
A|------------------------------------|
F|------------------------------------|
C|------------------------------------|
G|-0000000000000000-00000-000-000-000-|
C|-0000000000000000-00000-000-000-000-|(x2)
   ................ ..... ... ... ...

D|-----------------------------------------|
A|-----------------------------------------|
F|-----------------------------------------|
C|-----------------------------------------|
G|-0000000000000000~-00000~-000~-000~-000~-|
C|-0000000000000000~-00000~-000~-000~-000~-|(x2)
   ................  .....  ...  ...  ...

Guitar I
D|----------|
A|-8--------|
F|-11-------|
C|----------|
G|----0-0-0-|
C|----0-0-0-|
      . . .

Guitar I
D|----------|
A|-11-------|
F|-14-------|
C|----------|
G|----0-0-0-|
C|----0-0-0-|
      . . .

Guitar I
D|--------------------------------------------------------------------|
A|--------------------------------------------------------------------|
F|-14-------14\12------14-------14\10-------10/12------10------9------|
C|--x-(x24)--x--x-(x8)--x-(x24)--x--x-(x24)--x--x-(x8)--x-(x8)-x-(x4)-|
G|-12-------12\10------12-------12\-8--------8/10-------8------7------|
C|--------------------------------------------------------------------|

D|-----------------------------|
A|-----------------------------|
F|-10------12------14------14~-|
C|--x-(x4)--x-(x4)--x-(x4)--x--|
G|--8------10------12------12~-|
C|-----------------------------|

Guitar II
D|--------------------------------------------------------------------|
A|--------------------------------------------------------------------|
F|-10-------10\-5------10-------10\-5----------5--------------12------|
C|--x-(x24)--x--x-(x8)--x-(x24)--x--x-(x24)-3/-x-(x8)-3/-(x8)--x-(x4)-|
G|--8--------8\-3-------8--------8\-3-------3/-3------3/------10------|
C|------------------------------------------3/--------3/--------------|

D|---------------------------|
A|---------------------------|
F|--------5------10------10~-|
C|-3-(x4)-x-(x4)--x-(x4)--x--|
G|-3------3-------8-------8~-|
C|-3-------------------------|

Guitar I & II
D|---------------------------------|
A|---------------------------------|
F|---------------------------------|
C|---------------------------------|
G|---------------------------------|
C|-8-8-8-8-8-8-8-8-5-5-5-5-5-5-5-5-|

D|---------------------------------|
A|---------------------------------|
F|---------------------------------|
C|---------------------------------|
G|---------------------------------|
C|-7-7-7-7-7-7-7-7-3-3-3-3-3-3-3-3-|

D|---------------------------------|
A|---------------------------------|
F|---------------------------------|
C|---------------------------------|
G|---------------------------------|
C|-8-8-8-8-8-8-8-8-5-5-5-5-5-5-5-5-|

D|-------------------------------------|
A|-------------------------------------|
F|-------------------------------------|
C|-------------------------------------|
G|-------------------------------------|
C|-7-7-7-7-7-7-7-7-10-10-10-10-5-5-5-5-|
comments
print report bad tab
I want to post or [tab]
guest
You may want to rate the tab now too:
select rating
Please do not post tabs as comments. Select "correction" instead!