Oops, an error
Loading. Please wait.

Moving On Tab

version 1
version 1

Whole song

Interactive

66,841 views 519 this week
4 commentsread comments
1 2 3 4 5
accurate
x 16
add to favorites
launch autoscroll
font size
0
reset
how to read this tab
guitar tuner
Tab Pro tools
  • play this tab
  • loop segment
  • change instrument
  • show fretboard
  • metronome
Autoscroll
slow
fast
+/-
esc
set tempo
stop
Contributor
Difficulty
Tuning
novice
B F# B E G# C#
-------------------------------------------------------------------------------
                         Moving On - Asking Alexandria
-------------------------------------------------------------------------------
Guitar I   - Rhythm Guitar
Guitar II  - Lead Guitar
Guitar III - Clean Guitar
Tuning: Drop B


(0:00) - (0:16)
Guitar I
Intro
C#|-----------------------------------------------------------|
G#|-----------------------------------------------------------|
E |-----------------------------------------------------------|
B |---4--------0-----(0)-----0-----0----2-----(2)-------------|
F#|---4--4-4---0-----(0)-----0--0--0----2-----(2)-------------|
B |---4--4-4---0-----(0)-----0--0--0----2-----(2)-------------|
         * *                    *
Guitar II
C#|-------------------------------------------------------------------------|
G#|------10-7-10---(10)--7---7---------12-14-12-14-12-10-7--(7)---5---5-7---|
E |---6-------------------------------------------------------------6-------|
B |-------------------------------------------------------------------------|
F#|-------------------------------------------------------------------------|
B |-------------------------------------------------------------------------|

Guitar I
C#|-----------------------------------------------------------------------|
G#|-----------------------------------------------------------------------|
E |-----------------------------------------------------------------------|
B |---4--------0-----(0)-----0-----0----2--2---2----2-----(2)-------------|
F#|---4--4-4---0-----(0)-----0--0--0----2--2-2-2----2-----(2)-------------|
B |---4--4-4---0-----(0)-----0--0--0----2--2-2-2----2-----(2)-------------|
         * *                    *          * * *
Guitar II
C#|-----------------------------------------------------------------------------------|
G#|-------10-7-10---(10)--12b-10-12----14--17-14-17---17b----17-14--------------------|
E |---/6-----------------------------------------------------------16-14--------------|
B |----------------------------------------------------------------------16~----------|
F#|-----------------------------------------------------------------------------------|
B |-----------------------------------------------------------------------------------|

(0:16) - (0:44)
Guitar III
Verse I
(-A boy of anguish now-)
C#|----------------5----(5)------------------5----(5)---4----4-5h-4p-2-0-------|
G#|------------5-------------------------5-------------------------------------|
E |--------6-------------------------4-----------------------------------------|
B |----4-------------------------2---------------------------------------------|
F#|----------------------------------------------------------------------------|
B |----------------------------------------------------------------------------|

C#|--------------2----(2)-------------------4----(4)---------------------------|
G#|----------3--------------------------6--------------------------------------|
E |------2---------------------------------------------------------------------|
B |--0-----------------------------6-------------------------------------------|
F#|-----------------------------4----------------------------------------------|
B |----------------------------------------------------------------------------|
//play Guitar III 2 times


(0:44) - (1:13)
Guitar I
Chorus
C#|-----------------------------------------------------------------------------|
G#|-----------------------------------------------------------------------------|
E |--6---------2----(2)----4----------4---(4)--REPEAT 4 TIMES-------------------|
B |--4---------0----(0)----2----------2---(2)------THEN-------------------------|
F#|--4--4-4-4--0----(0)----2--2-2-2---2---(2)-----------------------------------|
B |--4--4-4-4--0----(0)----2--2-2-2---2---(2)-------------------7----7\6--6-----|
       * * *                 * * *

Guitar II
C#|----------------------------------------------------------------------------------------|
G#|-/9--10--/9---(9)--10--9--7-------------/9--10--/9---(9)--10--9--7---/12--10--9---------|
E |-----------------------------9--------------------------------------------------11------|
B |----------------------------------------------------------------------------------------|
F#|----------------------------------------------------------------------------------------|
B |----------------------------------------------------------------------------------------|

Guitar II
C#|------------------------------|
G#|---/9--10--9--5---------------|
E |------------------------------|
B |------------------------------|
F#|------------------------------|
B |------------------------------|
//Repeat Guitar II Twice

(1:13) - (1:41)
Guitar I & II

C#|-----------------------------------------------------------------------------|
G#|-----------------------------------------------------------------------------|
E |-----------------------------------------------------------------------------|
B |--4--4-4-4-4--4--(4)--4-4-4-4--6---6---2--2-2-2-2-2--(2)-2--2-6-4-2-4--------|
F#|-----------------------------------------------------------------------------|
B |-----------------------------------------------------------------------------|
       * * * *          * * * *             * * * *

C#|-----------------------------------------------------------------------------|
G#|-----------------------------------------------------------------------------|
E |-----------------------------------------------------------------------------|
B |--0---0--0-0---(0)---0-0-0-0-----------------7-----7/9-----9-----------------|
F#|---------------------------------4----4-4-4-----4-------7-----7--------------|
B |-----------------------------------------------------------------------------|
           *           * * * *

Guitar II
C#|---------------------------------------------------------------------12---12b-12b---17-16--|
G#|------7~------(7)----12b--10---12b--10--(10)---12-10-9-10-9--------------------------------|
E |--------------------------------------------------------------9--11------------------------|
B |-------------------------------------------------------------------------------------------|
F#|-------------------------------------------------------------------------------------------|
B |-------------------------------------------------------------------------------------------|

this may or not be right but will update. #AAFamily
comments
print report bad tab
4 comments total. Showing first comments.
0 reply
Audible Warfare wrote on August 13 2013, 07:54 pm

Seems okay. Just off in some places and it's missing about half of the song.

0 reply
A7X4753 wrote on August 13 2013, 09:18 pm

I know I'm not the greatest at tabbing but I thought I'd give a try. I am going to finish this I just need the "I can't believe I've come so far in such a time" part and the ending.

0 reply
MayhemX666 wrote on September 29 2013, 02:00 am

The ending part, it's just the chorus but just change the 4 to 5, the 0 to 1, and the 2 to 3. You're welcome! :D AAFamily

I want to post or [tab]
guest
You may want to rate the tab now too:
select rating
Please do not post tabs as comments. Select "correction" instead!