Oops, an error
Loading. Please wait.

Nobody Dont Dance No More Tab

version 1
version 1

Whole song

Interactive

20,844 views 12 this week
4 commentsread comments
1 2 3 4 5
accurate
x 8
add to favorites
launch autoscroll
font size
0
reset
how to read this tab
guitar tuner
Autoscroll
slow
fast
+/-
esc
set tempo
stop
Help us to improve Ultimate-Guitar.com Take our survey!
×
Author
Difficulty
Tuning
intermediate
D A D G B E
I love this band, and there really aren't enough tabs for them.
So I thought I'd start here!
Tell me what you think!

Tuning: Drop D

Intro

E---------------------------------------------------------------------------|
B----------------5----------------555-------------------555-----------------|
G----------------8----------------888-------------------888----xxxx---------|
D--------------------------------------------------------------xxxx---------|
A-00---000000---0----00~-000000~-0------00---0000000---0-------xxxx---------|
D-00---000000---0----00~-000000~-0------00---0000000---0--------------------|
  ..   ......   .    ..  ......  .      ..   .......   .

Transition x4
E---------------------------------------------------------------------------|
B---------------------------------------------------------------------------|
G---------------------------------------------------------------------------|
D----7p0-5p0-7p0----7p0-5p0-7p0----7p0-5p0-7p0-8p0-7p0-5h7p5-3p2------------|
A-00-------------00-------------00------------------------------------------|
D-00-------------00-------------00------------------------------------------|
  ..             ..             ..

E---------------------------------------------------------------------------|
B-------------555555--------------------------------------------------------|
G-------------888888---------------8--8--8--8-------------------------------|
D----------------------------------12-12-12-12----0~------------------------|
A-00~-000000~--------00~-000000~------------------0~------------------------|
D-00~-000000~--------00~-000000~------------------0~------------------------|
  ..  ......         ..  ......

Chorus x2
E---------------------------------------------------------------------------|
B---------------------------------------------------------------------------|
G--10-----12-----14-----15----------10-----14-----12-----9------------------|
D--x--x8--x--x8--x--x8--x--x8-------x--x8--x--x8--x--x8--x--x8--------------|
A--8------10-----12-----13----------8------12-----10-----7------------------|
D---------------------------------------------------------------------------|

Guitar 1 x4
E----------------------------------------------------------------------------|
B----------------------------------------------------------------------------|
G----------------------------------------------------------------------------|
D----------------------------------------------------------------------------|
A---8--7-10-8--7-7h8p7-5-8---------------------------------------------------|
D----00-0--0--0--------------------------------------------------------------|
     .. .  .  .

Guitar 2
E---------------------------------------------------------------------------|
B---------------------------------------------------------------------------|
G--10----9-10---------------------------------------------------------------|
D--x-----x-x-----7--5-8-7--5-5h7p5-3-7----7--5-6-7--5-5h7p5-3-7-------------|
A--8-----7-8----------------------------------------------------------------|
D-----------------00-0-0--0----------------00-0-0--0------------------------|
                  .. . .  .                .. . .  .

Chorus x2

Breakdown                         On the second time, do this:
E------------------------------]x4------------------------------------------|
B------------------------------]x4------------------------------------------|
G--------------9p0-5p0-8p0-7p0-]x4------------9p0-5p0-7*--------------------|
D------------------------------]x4------------------------------------------|
A-00--0000000------------------]x4-00--0000000------------------------------|
D-00--0000000------------------]x4-00--0000000------------------------------|
  ..  .......                      ..  .......

Techno Breakdown
Guitar 1 x3
E-----------------------------------------|
B-----------------------------------------|
G---------14-14--14-----------------------|
D-0~------x--x---x------------------------|
A-0~------12-12--12-----------------------|
D-0~--------------------------------------|

Guitar 2 x2(Come in after Guitar 1 goes once)
E-----------------------------------------|
B-----------------------------------------|
G---10-10-9-9--10-10--x3--10-10--10-------|
D---x--x--x-x--x--x-------x--x---x--------|
A---8--8--7-7--8--8-------8--8---8--------|
D-----------------------------------------|

E----------------------|
B----------------------|
G----------------------|
D-0~-------------------|
A-0~-------------------|
D-0~-------------------|

Heavy Breakdown
E-----------------------------4h5-------------------------|
B----------------------4h5-6h7----------------------------|
G-------------------5h7-----------------------------------|
D-1-----1-----1--------------------1-----1-----1----------|
A-1-00--1-00--1-00-----------------1-00--1-00--1-00-------|
D-1-00--1-00--1-00-----------------1-00--1-00--1-00-------|
    ..    ..    ..

E----------------------------4h5------------------------|
B---------------------4h5-6h7---------------------------|
G------------------5h7----------------------------------|
D-------------------------------------------------------|
A-000---000---000-------------------000--000--000-------|
D-000---000---000-------------------000--000--000-------|
  ...   ...   ...                  ...  ...  ...

Sweep part (Just a normal scale I couldn't figure out exactly)
E--------------------------15-----------------|
B-----------------15-17-18----18-17-15--------|
G--------14-15-17----------------------15-----|
D--15-17--------------------------------------|
A---------------------------------------------|
D---------------------------------------------|

E-----------------------------------------|
B--------------------------*5(dive bomb)--|
G-----------------------------------------|
D-0~--0~-------0~-------------------------|
A-0~--0~---875-0~-0-000000----------------|
D-0~--0~---875-0~-0-000000----------------|
           ...      ......

x2
E----------------------------------------------------------------|
B----------------------------------------------------------------|
G----------------------------------------------------------------|
D-0--------------8-7-----------0--------------8-7-5h7-0----------|
A-0----------------------------0---------------------------------|
D-0--0-000-000-0-----0-000-000-0--0-000-000-0----0---------------|
     . ... ... .     . ... ...    . ... ... .    .

x2
E----------------------------------------------------------------|
B----------------------------------------------------------------|
G------------------------------------------------------9---------|
D-0--------------8-7-----------0--------------8-7-5h7--------0~--|
A-0----------------------------0-----------------------------0~--|
D-0--0-000-000-0-----0-000-000-0--0-000-000-0----0-----------0~--|     . ... ... .     . 
...    . ... ... .    .


Breakdown x2 (last time cuts off early)
E----------------------------------------------|
B----------------------------------------------|
G----------------------------------------------|
D---------------------0------------------------|
A-000-000-0-0-000-000-0-000-000-0-0-000-000-0--|
D-000-000-0-0-000-000 0-000-000-0-0-000-000-0--|

Repeat it twice then somewhere in there is a:
E-----------------|
B-----------------|
G-----------------|
D-----------------|
A--5(dive bomb----|
D-----------------|

Continue breakdown until the end.
Hopefully this helps someone!!

-Kim
Suggest correction
What's this?
You can suggest a correction to this tab. Community and Mods will review your correction and vote to approve or reject it.
comments
print report bad tab
4 comments total. Showing first comments. show 1 bad comment
+1 reply
suttonb 16 wrote on October 4 2009, 01:15 pm

this is a wonderful tab, good job. but on this part:

E--------------------------------------------------------------------B-------------555555-------------------------------------------------
G-------------888888---------------8--8--8--8------------------------
D----------------------------------12-12-12-12----0~-----------------
A-00~-000000~--------00~-000000~------------------0~-----------------
D-00~-000000~--------00~-000000~------------------0~-----------------
.. ...... .. ......

would it not be easier to play this and have it sound the same?:

E--------------------------------------------------------------------B-------------555555-----------------4-4-4-4-------------------------
G-------------888888-----------------7-7-7-7-------------------------
D-------------------------------------------------0~-----------------
A-00~-000000~--------00~-000000~------------------0~-----------------
D-00~-000000~--------00~-000000~------------------0~-----------------
.. ...... .. ......

0 reply
suttonb 16 wrote on October 4 2009, 01:19 pm

damn my post looks ugly lol. but basically what im trying to say is instead of playing 8 on the G string and 12 on the D string, how about playing 7 on the B string and 7 on the G string, so you slide that 5-8 shape down one fret? idk, it sounds the same to me and its way easier to play

guest
You may want to rate the tab now too:
select rating
Please do not post tabs as comments. Select "correction" instead!