Oops, an error
Loading. Please wait.

Not The American Average Tab

version 4
version 4

Whole song

Interactive

4,471 views 1 this week
1 commentread comment
1 2 3 4 5
accurate
x 3
add to favorites
launch autoscroll
font size
0
reset
how to read this tab
guitar tuner
Tab Pro tools
  • play this tab
  • loop segment
  • change instrument
  • show fretboard
  • metronome
×
Best way to learn
"Not The American Average"
Autoscroll
slow
fast
+/-
esc
set tempo
stop
Contributor
Difficulty
Tuning
intermediate
D A D G B E
-------------------------------------------------------------------------------
                             Not The American Average - Asking Alexandria
-------------------------------------------------------------------------------
Tabbed by: Addz Taylor
E-mail: Adamtaylor123@live.co.uk

Tuning: Drop D .... [DADGBe]

This is my first tab, so please email me if you find a better, more accurate way of doing it
and i will change it and post you name as a reference...

-Drum Fill-
1... 2... 3... 4!!!


e|--------------------|
B|--------------------|
G|--------------------|
D|---0-0--------0-000-|
A|-5p0-0------5p0-000-|
D|---0-0--------0-000-|x2

e|----------------------------------------------------------------------------------------|
B|----------------------------------------------------------------------------------------|
G|------------8p0------------------8p0--------------------8p0-------------------8p0-------|
D|---0-0---------8p0------0-000-------8p0------0-0---5*-----8p0-------0-000-------8p0----|
A|-5p0-0------------8p0-5p0-000----------8p0-5p0-0--------------8p0--5p0-000----------8p0-|
D|---0-0------------------0-000----------------0-0---------------------0-000--------------|

e|---------------------------------------------------------------------------|
B|---------------------------------------------------------------------------|
G|------------8p0------------------8p0--------------------8p0----------------|
D|---0-0---------8p0------0-000-------8p0------0-0---5*-----8p0-------0-000-|
A|-5p0-0------------8p0-5p0-000----------8p0-5p0-0--------------8p0--5p0-000-|
D|---0-0------------------0-000----------------0-0---------------------0-000-|

e|----------------------------------------------------------------------------------------|
B|----------------------------------------------------------------------------------------|
G|------------8p0--------------------8p0------------------8p0-------------------8p0-------|
D|---0-0---------8p0------0-000--5*----8p0-------0-0---------8p0-------0-000-------8p0----|
A|-5p0-0------------8p0-5p0-000------------8p0-5p0-0------------8p0--5p0-000----------8p0-|
D|---0-0------------------0-000------------------0-0-------------------0-000--------------|x2

e|-------------------xxxx-|
B|-------------------xxxx-|
G|-------------------xxxx-|
D|-555-5--5-555-5--5-xxxx-|
A|-555-5--5-555-5--5-xxxx-|
D|-555-5--5-555-5--5-xxxx-|
   *** *  * *** *  *

e|---------------------------------------------------|
B|---------------------------------------------------|
G|-7-777777-9-999999-10-101010101010-12-121212121212-|
D|-7-777777-9-999999-10-101010101010-12-121212121212|
A|-5-555555-7-777777--8--8-8-8-8-8-8-10-101010101010-|
D|---------------------------------------------------|x4

e|----------------------------------------------------------------------------------------------|
B|----------------------------------------------------------------------------------------------|
G|---------------------------------------------------------------------------------------7h9h10-|
D|------------------8--------7------------0-----------------8----------------------7h9h10-------|
A|---8-7-8-10-8-7h8-8--8-7h8-7--8-10-8-7--0--8-7-8-10-8-7h8-8--8-7h8---------7h9h10-------------|
D|--0-0-0-0--0-0----8-0-0----7-0-0--------0-0-0-0-0--0-0----8-0-0----0-7h9h10-------------------|

Lead Guitar Dive Bomb Thing

e|------------------------------|
B|--5 WHAMMY---0 DIVE BOMB------|
G|------------------------------|   - Joins The Main Riff-
D|------------------------------|
A|------------------------------|
D|------------------------------|

e|------------------------------------------------------------------------------------------|
B|------------------------------------------------------------------------------------------|
G|------------------------------------------------------------------------------------------|
D|------------------------8-----------7---------------0-----------------------8-------------|
A|---12-10-12-13-12-10h12-8--12-10h12-7--12-13-12-10--0--12-10-12-13-12-10h12-8--12-10h12---|
D|--0--0--0--0--0--0------8-0--0------7-0--0----------0-0--0--0--0--0--0------8-0--0------0-|
   **  *  *  *  *  *        *  *        *  *            *  *  *  *  *  *        *  *     
e |-------------------------------------------------------------------------------|
B |-------------------------------------------------------------------------------|
G |-------------------7h9h10--10h9h7----------------------------------------------|
D |-------------7h9h10--------------10h9h7--------------------0~------------------|
A |-------7h9h10--------------------------10h9h7--------------0~------------------|
E |-7h9h10---------------------------------------10h9h7--0----0~------------------|
                                                            -Allow To Ring For As Long A Possible-

-DRUM FILL-

e|-----------------------------------------------------------------|
B|-----------------------------------------------------------------|
G|-----------------------------------------------------------------|
D|-00----0-000-000-3-0000----5-0-00000-000-000-3-0000----5-0-00000-|
A|-00----0-000-000-3-0000----5-0-00000-000-000-3-0000----5-0-00000-|
D|-00----0-000-000-3-0000----5-0-00000-000-000-3-0000----5-0-00000-|

e| ----------------------------------------|
B| ----------------------------------------|
G| ----------------------------------------|
D| -000-0000000000~-------0-000-00000000xx-|
A| -000-0000000000~-------0-000-00000000xx-|
D| -000-0000000000~-------0-000-00000000xx-|
   *** **********        * *** **********

e|-----------------------------------------------------------------|
B|-----------------------------------------------------------------|
G|-----------------------------------------------------------------|
D|-00----0-000-000-3-0000----5-0-00000-000-000-3-0000----5-0-00000-|
A|-00----0-000-000-3-0000----5-0-00000-000-000-3-0000----5-0-00000-|
D|-00----0-000-000-3-0000----5-0-00000-000-000-3-0000----5-0-00000-|

e| ----------------------------------------|
B| ----------------------------------------|
G| ----------------------------------------|
D| -000-0000000000~-------0-000-0000000000-|
A| -000-0000000000~-------0-000-0000000000-|
D| -000-0000000000~-------0-000-0000000000-|
   *** **********        * *** **********

-Random Singing Bit :P-

e|----------------------------------|
B|----------------------------------|
G|----------------------------------|
D|-00--00----000--00--00--00----000-|
A|-00--00----000--00--00--00----000-|
D|-11--11----111--11--11--11----111-|
   **  **    ***  **  **  **    ***

e|----------------------------------------------------------------------------|
B|----------------------------------------------------------------------------|
G|----------------------------------------------------------------------------|
D|-00~------000~--00~--00~------000~--00~--00--00---000--00--00--00---000--00-|
A|-00~------000~--00~--00~------000~--00~--00--00---000--00--00--00---000--00-|
D|-00~------000~--00~--00~------000~--00~--00--00---000--00--00--00---000--00-|

e|--------------------------------------------|
B|--------------------------------------------|
G|--------------------------------------------|
D|-00~------000~--00~--00~------000~--00~--00-|
A|-00~------000~--00~--00~------000~--00~--00-|
D|-11~------111~--11~--11~------111~--11~--00-|

e|----------------------------------------------------------------|
B|----------------------------------------------------------------|
G|----------------------------------------------------------------|
D|-00~------------000~----00~----00~------------000~----00~----00-|
A|-00~------------000~----00~----00~------------000~----00~----00-|
D|-00~------------000~----00~----00~------------000~----00~----00-|

************************************

| h                  hammer-on
| p                  pull-off
| ~                  vibrato
| x                  Plam note
| b                  Bend
| * (next to note)   Natural Harmonic  (in Verus 1 you can bend down to get an equaly good sound)
| * (bottem of line) Muted Note
************************************
comments
We did not receive enough feedback on this tab! Please rate:
print report bad tab
1 2 3 4 5
1 comment total.
0 reply
CrossRoads8661 wrote on February 14 2013, 11:18 pm

For the your thighs were made for cheeks to graze part they should be octaves not power chords unless youre doing guitar two which should be D5 A5 A#5 and C#5

I want to post or [tab]
guest
You may want to rate the tab now too:
select rating
Please do not post tabs as comments. Select "correction" instead!