Oops, an error
Loading. Please wait.

Poison Tab

version 1
version 1

Whole song

Interactive

8,878 views 6 this week
6 commentsread comments
1 2 3 4 5
excellent!
x 18
add to favorites
launch autoscroll
font size
0
reset
how to read this tab
guitar tuner
Tab Pro tools
  • play this tab
  • loop segment
  • change instrument
  • show fretboard
  • metronome
×
Best way to learn
"Poison"
Autoscroll
slow
fast
+/-
esc
set tempo
stop
Contributor
Difficulty
Tuning
intermediate
B F# B E G# C#
ASKING ALEXANDRIA
POISON
DROP B
Gtr1 - Ben Bruce
Gtr2 - Cameron Liddell


                        ___________________________
                        ___GUITAR 1 - Ben Bruce____
Intro
|----------------------------------------------------------------|      --------
|----------------------------------------------------------------|      ---------
|----------------------------------------------------------------|      --10~-----
|-----------------------------------------------------------5-2--| then --x--------
|-00-00--00000000-00-0--------------00-00--00000000-00-0---------|      --8~--------
|-00-00--00000000-00-0-5b(7)r-3-0---00-00--00000000-00-0-5-2-----|      -------------
  ** **  ******** ** *              ** **  ******** ** *                8 strums

Verse 
Gtr1 & 2                     x2                                 x2
|----------------------------|----------------------------------|
|----------------------------|----------------------------------|
|----------------------------|----------------------------------|
|----------------------------|----------------------------------|(x2)
|-00000--0000000-0-0--0-00-0-|-00000~-0000000~-0~0~-0~----------|
|-00000--0000000-0-0--0-00-0-|-00000~-0000001~-1~1~-1~-0-O-0-O--|
  *****  ******* * *  * ** *                           *   * 


Chorus 0:38                x1                                                         x2
|--------------------------|----------------------------------------------------------|
|--------------------------|----------------------------------------------------------|
|-7~-------3~------2~------|-7777-7777-77777777-7777-77773333-3333-33332222-2222-2222-|
|-x-(x32)--x-(x16)-x-(x16)-|-xxxx-xxxx-xxxxxxxx-xxxx-xxxxxxxx-xxxx-xxxxxxxx-xxxx-xxxx-|
|-5~-------1~------0~------|-5555-5555-55555555-5555-55551111-1111-11110000-0000-0000-|
|--------------------------|----------------------------------------------------------|



Pre-Verse 2 1:16
|-------------------|
|-------------------|
|-------------------|
|-------------------|
|-000-0-00-00-00000-|
|-000-0-00-00-00000-|...
  *** * ** ** *****

Verse 2 1:19             1st ending        2nd ending      3rd ending         4th ending
|-------------------|-17h18p17--------|---------------|-17h18p17---20/22-|---------------|
|-------------------|---------18-15---|---------------|---------18-------|---------------|
|-------------------|-----------------|---------------|------------------|---------------|
|-------------------|--------------18-|------=--------|------------------|------=--------|
|-000-0-00-00-00000-|-----------------|---------------|------------------|---------------|
|-000-0-00-00-00000-|-----------------|---------------|------------------|---------------|
  *** * ** ** *****
^^If you don't get this; play the palm mutes first then the first ending. Then replay the 
palm mutes and play the 2nd ending (which is nothing) So on and so forth.




1:31 "Where do I go, what do i say?"
|---------------------------------------------------------------------------------------------F--|
|---------------------------------------------------------------------------------------------A--|
|---------------------------------------------------------------------------------------------S--|
|--------------------------------------------------------------------------------------------/T\-|
|-000-0-00-00-00000~~--000-0-00-00-00000----000-0-00-00-00000~~--000-0-00-00-000-0~0~0~0~0~0~000-|
|-000-0-00-00-00000~~--000-0-00-00-00000----000-0-00-00-00000~~--000-0-00-00-000-0~0~0~1~1~1~000-|



"I Wanna Watch The Whole World.." 1:44
(more spaced out but i couldn't fit it in otherwise)
|-----------------------------------------------------------------------------------------------|
|---10---------10--13------10-----------------------13---------13--15------13-------------------|
|-----12-10------12--10------12-10------10-12---------15-14------15--14------15-14------14-15---|
|-12---------12----------12---------12-------10---15---------15----------15---------15-------15-|
|-----------------------------------------------------------------------------------------------|
|-----------------------------------------------------------------------------------------------|


            Play Chorus 2:11 - 2:49

Outro 2:49
|-------------------------------------------------|
|-------------------------------------------------|
|-------------------------------------------------|
|-------------------------------------------------|
|-000-0-00-00-00000------000-0-00-00-----0~-------|
|-000-0-00-00-00000------000-0-00-00-00000~-------|
  *** * ** ** *****      *** * ** **          ^ turn volume down/off








                       _________________________________
                       ___GUITAR 2 - Cameron Liddell____

Intro
|----------------------------------------------------------------|      -------------
|----------------------------------------------------------------|      ------------
|----------------------------------------------------------------|      -14~-------
|-----------------------------------------------------------8-5--| then -x--------
|-00-00--00000000-00-0--------------00-00--00000000-00-0---------|      -12~-----
|-00-00--00000000-00-0-8b(10)r-7-0--00-00--00000000-00-0-8-5-----|      --------
  ** **  ******** ** *              ** **  ******** ** *                8 strums

Verse 
Gtr1 & 2                     x2                                 x2
|----------------------------|----------------------------------|
|----------------------------|----------------------------------|
|----------------------------|----------------------------------|
|----------------------------|----------------------------------|(x2)
|-00000--0000000-0-0--0-00-0-|-00000~-0000000~-0~0~-0~----------|
|-00000--0000000-0-0--0-00-0-|-00000~-0000001~-1~1~-1~-0-O-0-O--|
  *****  ******* * *  * ** *                           *   * 


Chorus 0:38                x1                                                         x2
|--------------------------|-----------13~--------------------------------------------|
|--------------------------|-15~---17~----15~---18~-15~-------------------------------|
|-7~-------3~------2~------|----------------------------------------------------------|
|-x-(x32)--x-(x16)-x-(x16)-|----------------------------(14-15-14-17-)----------------|
|-5~-------1~------0~------|-------------------------------^8 times^------------------|
|--------------------------|----------------------------------------------------------|



Pre-Verse 2 1:16..
(Gtr1)



Verse 2 1:19
Gtr2                   1st ending        2nd ending      3rd ending         4th ending
|-------------------|-12h13p12--------|---------------|-12h13p12---15/17-|---------------|
|-------------------|---------13-10---|---------------|---------13-------|---------------|
|-------------------|-----------------|---------------|------------------|---------------|
|-------------------|--------------13-|------=--------|------------------|------=--------|
|-000-0-00-00-00000-|-----------------|---------------|------------------|---------------|
|-000-0-00-00-00000-|-----------------|---------------|------------------|---------------|
  *** * ** ** *****




1:31 "Where do i go, what do i say?"
|---------------------------------------------------------------------------------------------F--|
|---------------------------------------------------------------------------------------------A--|
|---------------------------------------------------------------------------------------------S--|
|--------------------------------------------------------------------------------------------/T\-|
|-000-0-00-00-00000~~--000-0-00-00-00000----000-0-00-00-00000~~--000-0-00-00-000-0~0~0~0~0~0~000-|
|-000-0-00-00-00000~~--000-0-00-00-00000----000-0-00-00-00000~~--000-0-00-00-000-0~0~0~1~1~1~000-|



"I Wanna Watch The Whole World.." 1:44
|-----------------------------------------------|-----------------------------------------------|
|---10---------10--13------10-------------------|---10---------10--13------10-------------------|
|-----12-10------12--10------12-10------10-12---|-----12-10------12--10------12-10------10-12---|
|-12---------12----------12---------12-------10-|-12---------12----------12---------12-------10-|
|-----------------------------------------------|-----------------------------------------------|
|-----------------------------------------------|-----------------------------------------------|



                                 Play Chorus 2:11 - 2:49

Outro 2:49
|-------------------------------------------------|
|-------------------------------------------------|
|-------------------------------------------------|
|-------------------------------------------------|
|-000-0-00-00-00000------000-0-00-00-----0~-------|
|-000-0-00-00-00000------000-0-00-00-00000~-------|
  *** * ** ** *****      *** * ** **          ^ turn volume down/off


Done. 
DYK: If this tab had one vote for every view,
It would be the highest ranked tab. Please rate!
comments
print report bad tab
6 comments total. Showing first comments.
0 reply
deathfromala wrote on August 10 2013, 11:27 pm

Yeah, nice 1* rate, Ya ****tard

+1 reply
deathfromala wrote on September 4 2013, 09:44 pm

never mind this comment anymore lol

0 reply
GraceTheWrong wrote on September 4 2013, 08:38 am

Can you try redoing this so it's a little more organized? It bothers me that it looks all slopped together.

I want to post or [tab]
guest
You may want to rate the tab now too:
select rating
Please do not post tabs as comments. Select "correction" instead!