Oops, an error
Loading. Please wait.

The Black tab

version 2
version 2

Whole song

  • This is just one of the guitars which means that t... Show more

Interactive

37 views 15 this week
no commentswrite comment
1 2 3 4 5
3 more votes to show rating
add to favorites
×
Save as Personal and add changes to this tab that will be seen only by you. Learn more ›
×
You can save this tab as Personal to edit and correct it or add notes. All changes will be seen only by you. Learn more »
launch autoscroll
font size
0
reset
how to read this tab
guitar tuner
edit
Autoscroll
slow
fast
+/-
esc
set tempo
stop
About this tab version
This is just one of the guitars which means that the "screaming" sound at the outro is played on another guitar. Was this info helpful? Yes No
Song : The Black
Artist : Asking Alexandria
Album : The Black
Release Date : 2016
Produced by : Joey Sturgis


[Intro]
C#|------------------------------|
G#|------------------------------|
E |------------------------------|
B |------------------------------|
F#|------------------------------|
B |-13-13-13-13-12--0---0--0---0-|
PM                      .

C#|------------------------------------------|
G#|------------------------------------------|
E |------------------------------------------|
B |------------------------------------------|  x2
F#|------------------------------------------|
B |-12-10--0---0--0---0-13-12--0---0--0---0--|
PM             .                   .

C#|------------------------------------------|
G#|------------------------------------------|
E |------------------------------------------|
B |------------------------------------------|
F#|---------------------12-------------------|
B |-12-10--0---0--0---0----13--12---0--0---0-|
PM             .                    .

C#|----------------------------------------|
G#|----------------------------------------|
E |----------------------------------------|
B |----------------------------------------|
F#|----------------------------------------|
B |-12-13-12-0-12------13-12--0---0--0---0-|
PM                                .

C#|------------------------------------------|
G#|------------------------------------------|
E |------------------------------------------|
B |------------------------------------------|
F#|---------------------12-------------------|
B |-12-10--0---0--0---0----13--12---0--0---0-|
PM             .                    .

C#|-------------------------------------------|
G#|-------------------------------------------|
E |-------------------------------------------|
B |-------------------------------------------|
F#|-------------------------------------------|
B |-12-13-12-0-10-0-10-12-13-12--0---0--0---0-|
PM                                   .

C#|------------------------------------------|
G#|------------------------------------------|
E |------------------------------------------|
B |------------------------------------------|
F#|---------------------12-------------------|
B |-12-10--0---0--0---0----13--12---0--0---0-|
PM             .                    .

C#|-------------------------------------------|
G#|-------------------------------------------|
E |-------------------------------------------|
B |-------------------------------------------|
F#|-------------------------------------------|
B |-12-13-12-0-10-0-10-12-13-12--0---0--0---0-|
PM                                   .

C#|------------------------------------------|
G#|------------------------------------------|
E |------------------------------------------|
B |------------------------------------------|
F#|---------------------12-------------------|
B |-12-10--0---0--0---0----13--12---0--0---0-|
PM             .                    .

C#|-------------------------------------------|
G#|-------------------------------------------|
E |-------------------------------------------|
B |-------------------------------------------|
F#|-------------------------------------------|
B |-12-13-12-0-10-0-10-12-13-12--0---0--0---0-|
PM                                   .

C#|------------------------------------------|
G#|------------------------------------------|
E |------------------------------------------|
B |------------------------------------------|
F#|---------------------12-------------------|
B |-12-10--0---0--0---0----13--12---0--0---0-|
PM             .                    .

[Verse]
C#|-------------------------------------------|
G#|-------------------------------------------|
E |-------------------------------------------|
B |-------------------------------------------|
F#|-----------------------12------------------|
B |-12-13-12-0-10-0-10-12----13--12---0-0-0-0-|
PM                                        .

C#|--------------------------------------------|
G#|--------------------------------------------|
E |--------------------------------------------|
B |--------------------------------------------|
F#|------------------------12------------------|
B |-12-13-12-13-12-0-10-12----13--12---0-0-0-0-|
PM                                         .

C#|-------------------------------------------|
G#|-------------------------------------------|
E |-------------------------------------------|
B |-------------------------------------------|
F#|-----------------------12------------------|
B |-12-13-12-0-12-0-10-12----13--12---0-0-0-0-|
PM                                        .

C#|--------------------------------------------|
G#|--------------------------------------------|
E |--------------------------------------------|
B |--------------------------------------------|
F#|------------------------12------------------|
B |-12-13-12-13-12-0-10-12----13--12---0-0-0-0-|
PM                                         .

C#|----------------------------------------------------------|
G#|----------------------------------------------------------|
E |----------------------------------------------------------|
B |----------------------------------------------------------|  x4
F#|----------------------------------------------------------|
B |-12-13-12-13-12-0----13-12-0--0---0--------13-12-0-0----0-|

C#|------------------------|
G#|------------------------|
E |------------------------|
B |------------------------|
F#|------------10----------|
B |-12-13-12-0----13-12-13-|

C#|---------------------------------8---8---8---8---8---8---8-|
G#|-10---10---10---10---8---8---8-----------------------------|
E |-----------------------------------------------------------|
B |-----------------------------------------------------------|
F#|-----------------------------------------------------------|
B |-----------------------------------------------------------|

[Chorus]
C#|------------------------------------------------------------------|
G#|------------------------------------------------------------------|
E |------------------------------------------------------------------|
B |-0--------0--------0--------0--------3--------3--------3--------3-|
F#|-0--------0--------0--------0--------3--------3--------3--------3-|
B |-0--------0--------0--------0--------3--------3--------3--------3-|

C#|------------------------------------------------------------------|
G#|------------------------------------------------------------------|
E |------------------------------------------------------------------|
B |-8--------8--------8--------8--------7--------7--------7--------7-|
F#|-8--------8--------8--------8--------7--------7--------7--------7-|
B |-8--------8--------8--------8--------7--------7--------7--------7-|

C#|------------------------------------------------------------------|
G#|------------------------------------------------------------------|
E |------------------------------------------------------------------|
B |-0--------0--------0--------0--------3--------3--------3--------3-|
F#|-0--------0--------0--------0--------3--------3--------3--------3-|
B |-0--------0--------0--------0--------3--------3--------3--------3-|

C#|------------------------------------------------------------------|
G#|------------------------------------------------------------------|
E |------------------------------------------------------------------|
B |-8--------8--------8--------8--------7--------7--------7--------7-|
F#|-8--------8--------8--------8--------7--------7--------7--------7-|
B |-8--------8--------8--------8--------7--------7--------7--------7-|

C#|--------------------|
G#|--------------------|
E |--------------------|
B |-0------------------|
F#|-0------------------|
B |-0------------------|

[Verse 2]
C#|--------------------|
G#|--------------------|
E |--------------------|
B |--------------------|
F#|-12-----------------|
B |----13-12---0-0-0-0-|
PM                 .

C#|-------------------------------------------|
G#|-------------------------------------------|
E |-------------------------------------------|
B |-------------------------------------------|
F#|------------------------12-----------------|
B |-12-13-12-13-12-0-10-12----13-12---0-0-0-0-|
PM                                        .

C#|------------------------------------------|
G#|------------------------------------------|
E |------------------------------------------|
B |------------------------------------------|
F#|-----------------------12-----------------|
B |-12-13-12-0-10-0-10-12----13-12---0-0-0-0-|
PM                                       .

C#|-------------------------------------------|
G#|-------------------------------------------|
E |-------------------------------------------|
B |-------------------------------------------|
F#|------------------------12-----------------|
B |-12-13-12-13-12-0-10-12----13-12---0-0-0-0-|
PM                                        .

C#|--------------------------------------|
G#|--------------------------------------|
E |--------------------------------------|
B |--------------------------------------|
F#|--------------------------------------|
B |-12-13-12-13-12-0------13-12-0--0---0-|

C#|---------------|
G#|---------------|
E |---------------|
B |---------------|
F#|---------------|
B |-13-12-0-0---0-|

C#|---------------------------------------|
G#|---------------------------------------|
E |---------------------------------------|
B |---------------------------------------|
F#|------------10-------------------------|
B |-12-13-12-0----13-12-13-13-12-0--0---0-|

C#|---------------|
G#|---------------|
E |---------------|
B |---------------|
F#|---------------|
B |-13-12-0-0---0-|

C#|---------------------------------------|
G#|---------------------------------------|
E |---------------------------------------|
B |---------------------------------------|
F#|------------10-------------------------|
B |-12-13-12-0----13-12-13-13-12-0--0---0-|

C#|---------------|
G#|---------------|
E |---------------|
B |---------------|
F#|---------------|
B |-13-12-0-0---0-|

C#|---------------------------------------|
G#|---------------------------------------|
E |---------------------------------------|
B |---------------------------------------|
F#|------------10-------------------------|
B |-12-13-12-0----13-12-13-13-12-0--0---0-|

C#|---------------|
G#|---------------|
E |---------------|
B |---------------|
F#|---------------|
B |-13-12-0-0---0-|

C#|------------------------|
G#|------------------------|
E |------------------------|
B |------------------------|
F#|------------10----------|
B |-12-13-12-0----13-12-13-|

[Chorus]
C#|------------------------------------------------------------------|
G#|------------------------------------------------------------------|
E |------------------------------------------------------------------|
B |-0--------0--------0--------0--------3--------3--------3--------3-|
F#|-0--------0--------0--------0--------3--------3--------3--------3-|
B |-0--------0--------0--------0--------3--------3--------3--------3-|

C#|------------------------------------------------------------------|
G#|------------------------------------------------------------------|
E |------------------------------------------------------------------|
B |-8--------8--------8--------8--------7--------7--------7--------7-|
F#|-8--------8--------8--------8--------7--------7--------7--------7-|
B |-8--------8--------8--------8--------7--------7--------7--------7-|

C#|------------------------------------------------------------------|
G#|------------------------------------------------------------------|
E |------------------------------------------------------------------|
B |-0--------0--------0--------0--------3--------3--------3--------3-|
F#|-0--------0--------0--------0--------3--------3--------3--------3-|
B |-0--------0--------0--------0--------3--------3--------3--------3-|

C#|------------------------------------------------------------------|
G#|------------------------------------------------------------------|
E |------------------------------------------------------------------|
B |-8--------8--------8--------8--------7--------7--------7--------7-|
F#|-8--------8--------8--------8--------7--------7--------7--------7-|
B |-8--------8--------8--------8--------7--------7--------7--------7-|

C#|--------------------|
G#|--------------------|
E |--------------------|
B |-0------------------|
F#|-0------------------|
B |-0------------------|

This part is actually played on an Acoustic Grand Piano but i
tabbed it for guitar if you wanted to play it on guitar as well.
C#|----------------------------------------------------------------------------|
G#|-----6------7---7-9--------10------10---------9-----10---9---------7------7-|
E |----------------------------------------------------------------------------|  x3
B |----------------------------------------------------------------------------|
F#|-4-------4-------------9--------9---------7------7-------------5-------5----|
B |----------------------------------------------------------------------------|

C#|--------------------|
G#|-----6------7---7-9-|
E |--------------------|
B |--------------------|
F#|-4-------4----------|
B |--------------------|

Here's the guitar again.
Let this measure ring
C#|-------------------------------|
G#|-------------------------------|
E |-------------------------------|
B |-7---7---7---7---7---7---7---7-|
F#|-7---7---7---7---7---7---7---7-|
B |-7---7---7---7---7---7---7---7-|

Let this measure ring
C#|-------------------------------|
G#|-------------------------------|
E |-------------------------------|
B |-3---3---3---3---3---3---3---3-|
F#|-3---3---3---3---3---3---3---3-|
B |-3---3---3---3---3---3---3---3-|

Let this measure ring
C#|-------------------------------|
G#|-------------------------------|
E |-------------------------------|
B |-0---0---0---0---0---0---0---0-|
F#|-0---0---0---0---0---0---0---0-|
B |-0---0---0---0---0---0---0---0-|

Let htis measure ring
C#|-------------------------------|
G#|-------------------------------|
E |-------------------------------|
B |-2---2---2---2---2---2---2---2-|
F#|-2---2---2---2---2---2---2---2-|
B |-2---2---2---2---2---2---2---2-|

Let this measure ring
C#|-------------------------------|
G#|-------------------------------|
E |-------------------------------|
B |-7---7---7---7---7---7---7---7-|
F#|-7---7---7---7---7---7---7---7-|
B |-7---7---7---7---7---7---7---7-|

Let this measure ring
C#|-------------------------------|
G#|-------------------------------|
E |-------------------------------|
B |-3---3---3---3---3---3---3---3-|
F#|-3---3---3---3---3---3---3---3-|
B |-3---3---3---3---3---3---3---3-|

Let this measure ring
C#|-------------------------------|
G#|-------------------------------|
E |-------------------------------|
B |-0---0---0---0---0---0---0---0-|
F#|-0---0---0---0---0---0---0---0-|
B |-0---0---0---0---0---0---0---0-|

Let htis measure ring
C#|-------------------------------|
G#|-------------------------------|
E |-------------------------------|
B |-2---2---2---2---2---2---2---2-|
F#|-2---2---2---2---2---2---2---2-|
B |-2---2---2---2---2---2---2---2-|

Let this measure ring
C#|-------------------------------|
G#|-------------------------------|
E |-------------------------------|
B |-7---7---7---7---7---7---7---7-|
F#|-7---7---7---7---7---7---7---7-|
B |-7---7---7---7---7---7---7---7-|

Let this measure ring
C#|-------------------------------|
G#|-------------------------------|
E |-------------------------------|
B |-3---3---3---3---3---3---3---3-|
F#|-3---3---3---3---3---3---3---3-|
B |-3---3---3---3---3---3---3---3-|

Let this measure ring
C#|-------------------------------|
G#|-------------------------------|
E |-------------------------------|
B |-0---0---0---0---0---0---0---0-|
F#|-0---0---0---0---0---0---0---0-|
B |-0---0---0---0---0---0---0---0-|

Let htis measure ring
C#|-------------------------------|
G#|-------------------------------|
E |-------------------------------|
B |-2---2---2---2---2---2---2---2-|
F#|-2---2---2---2---2---2---2---2-|
B |-2---2---2---2---2---2---2---2-|

Let this measure ring
C#|-------------------------------|
G#|-------------------------------|
E |-------------------------------|
B |-7---7---7---7---7---7---7---7-|
F#|-7---7---7---7---7---7---7---7-|
B |-7---7---7---7---7---7---7---7-|

Let this measure ring
C#|-------------------------------|
G#|-------------------------------|
E |-------------------------------|
B |-3---3---3---3---3---3---3---3-|
F#|-3---3---3---3---3---3---3---3-|
B |-3---3---3---3---3---3---3---3-|

Let this measure ring
C#|-------------------------------|
G#|-------------------------------|
E |-------------------------------|
B |-0---0---0---0---0---0---0---0-|
F#|-0---0---0---0---0---0---0---0-|
B |-0---0---0---0---0---0---0---0-|

Let this measure ring
C#|-------------------------------|
G#|-------------------------------|
E |-------------------------------|
B |-2---2---2---2---2---2---2---2-|
F#|-2---2---2---2---2---2---2---2-|
B |-2---2---2---2---2---2---2---2-|

C#|----------|
G#|----------|
E |----------|
B |-7--------|
F#|-7--------|
B |-7--------|

*********************

|  PM =  Palm Mute

*********************
Suggest correction
Creating personal tab
Creating personal tab
You can edit any tab online and save it as your Personal.

You can edit, replace or remove any tab part or add personal notes – all changes will be seen only by you.

Personal tabs can be accessed anytime from any device, even offline.
Learn more »
Give kudos to tab author, rate the tab!
1 2 3 4 5
comments
print report bad tab
guest
You may want to rate the tab now too:
select rating
Wanna post a correction for this tab? Suggest correction