Oops, an error
Loading. Please wait.

The Death Of Me Bass Tab

version 1
version 1

Whole song

Interactive

3,314 views 42 this week
no commentswrite comment
1 2 3 4 5
excellent!
x 2
add to favorites
launch autoscroll
font size
0
reset
guitar tuner
Tab Pro tools
  • play this tab
  • loop segment
  • change instrument
  • show fretboard
  • metronome
Autoscroll
slow
fast
+/-
esc
set tempo
stop
Contributor
Difficulty
Tuning
intermediate
B F# B E G# C#
   Intro
E |-----------------------------------------------------------------|
B |-----------------------------------------------------------------|
F#|-----------------------------------------------------------------|
B |-0-0-0-0-0-0-0-8---8-8-8-8-8-8-7---7-7-7-7-7-7-7---3-3-3-3-3-3-0-|
    1 + 2 + 3 + 4 + 1 + 2 + 3 + 4 + 1 + 2 + 3 + 4 + 1 + 2 + 3 + 4 +

E |-----------------------------------------------------------------|
B |-----------------------------------------------------------------|
F#|-------------------------------3---3-3-3-3-3-3-3-3-3-3-3-3-3-3---|
B |---0-0-0-0-0-0-8---8-8-8-8-8-8---------------------------------0-|
    1 + 2 + 3 + 4 + 1 + 2 + 3 + 4 + 1 + 2 + 3 + 4 + 1 + 2 + 3 + 4 +

   Verse x2
E |------------------------------------------------------------------|
B |o-----------------------------------------------------------------|
F#|o-----------------------------------------------------------------|
B |----0-0-0-0-0-0-8---8-8-8-8-8-8-7---7-7-7-7-7-7-7---3-3-3-3-3-3-0-|
     1 + 2 + 3 + 4 + 1 + 2 + 3 + 4 + 1 + 2 + 3 + 4 + 1 + 2 + 3 + 4 +

E |------------------------------------------------------------------|
B |-----------------------------------------------------------------o|
F#|-------------------------------3---3-3-3-3-3-3-3-3-3-3-3-3-3-3---o|
B |---0-0-0-0-0-0-8---8-8-8-8-8-8---------------------------------0--|
    1 + 2 + 3 + 4 + 1 + 2 + 3 + 4 + 1 + 2 + 3 + 4 + 1 + 2 + 3 + 4 +

    Chorus x3
E |------------------------------------------------------------------|
B |o-----------------------------------------------------------------|
F#|o-1-1-1-1-1-1-1-1-------------------------------------------------|
B |------------------5-5-5-5-5-5-5-5-0-0-0-0-0-0-0-0-3-3-3-3-3-3-3-3-|
     1 + 2 + 3 + 4 + 1 + 2 + 3 + 4 + 1 + 2 + 3 + 4 + 1 + 2 + 3 + 4 +

E |------------------------------------------------------------------|
B |-----------------------------------------------------------------o|
F#|-1-1-1-1-1-1-1-1-3-3-3-3-3-3-3-3---------------------------------o|
B |---------------------------------0-0-0-0-0-0-0-0-0-0-0-0-0-0-0-0--|
    1 + 2 + 3 + 4 + 1 + 2 + 3 + 4 + 1 + 2 + 3 + 4 + 1 + 2 + 3 + 4 +

   Verse x4
E |-----------------------------------------------------------------|
B |-----------------------------------------------------------------|
F#|-----------------------------------------------------------------|
B |---0-0-0-0-0-0-8---8-8-8-8-8-8-7---7-7-7-7-7-7-7---3-3-3-3-3-3-0-|
    1 + 2 + 3 + 4 + 1 + 2 + 3 + 4 + 1 + 2 + 3 + 4 + 1 + 2 + 3 + 4 +

E |-----------------------------------------------------------------|
B |-----------------------------------------------------------------|
F#|-------------------------------3---3-3-3-3-3-3-3-3-3-3-3-3-3-3---|
B |---0-0-0-0-0-0-8---8-8-8-8-8-8---------------------------------0-|
    1 + 2 + 3 + 4 + 1 + 2 + 3 + 4 + 1 + 2 + 3 + 4 + 1 + 2 + 3 + 4 +
 
    Breakdown
E |-----------------------------------------------------------------|
B |-----------------------------------------------------------------|
F#|-----------------------------------------------------------------|
B |-000-0-0-000-0-0--00-0-0-000-0-0-000-0-0-000-0-0-000-0-0-000-0-0-|
    1 + 2 + 3 + 4 + 1 + 2 + 3 + 4 + 1 + 2 + 3 + 4 + 1 + 2 + 3 + 4 +

E |-----------------------------------------------------------------|
B |-----------------------------------------------------------------|
F#|-----------------------------------------------------------------|
B |-000-0-0-000-0-0--00-0-0-000-0-0-000-0-0-000-0-0-000-0-0-000-0-0-|
    1 + 2 + 3 + 4 + 1 + 2 + 3 + 4 + 1 + 2 + 3 + 4 + 1 + 2 + 3 + 4 +

E |-----------------------------------------------------------------|
B |-----------------------------------------------------------------|
F#|-----------------------------------------------------------------|
B |-111-1-1-111-1-1--11-1-1-111-1-1-111-1-1-111-1-1-111-1-1-111-1-1-|
    1 + 2 + 3 + 4 + 1 + 2 + 3 + 4 + 1 + 2 + 3 + 4 + 1 + 2 + 3 + 4 +

E |-----------------------------------------------------------------|
B |-----------------------------------------------------------------|
F#|-----------------------------------------------------------------|
B |-000-0-0-000-0-0--00-0-0-000-0-0-000-0-0-000-0-0-000-0-0-0-------|
    1 + 2 + 3 + 4 + 1 + 2 + 3 + 4 + 1 + 2 + 3 + 4 + 1 + 2 + 3 + 4 +

    Chorus x3
E |------------------------------------------------------------------|
B |o-----------------------------------------------------------------|
F#|o-1-1-1-1-1-1-1-1-------------------------------------------------|
B |------------------5-5-5-5-5-5-5-5-0-0-0-0-0-0-0-0-3-3-3-3-3-3-3-3-|
     1 + 2 + 3 + 4 + 1 + 2 + 3 + 4 + 1 + 2 + 3 + 4 + 1 + 2 + 3 + 4 +

E |------------------------------------------------------------------|
B |-----------------------------------------------------------------o|
F#|-1-1-1-1-1-1-1-1-3-3-3-3-3-3-3-3---------------------------------o|
B |---------------------------------0-0-0-0-0-0-0-0-0-0-0-0-0-0-0-0--|
    1 + 2 + 3 + 4 + 1 + 2 + 3 + 4 + 1 + 2 + 3 + 4 + 1 + 2 + 3 + 4 +

    Bridge
E |-----------------|
B |-----------------|
F#|-----------------|
B |-0---------------|
    1 2 3 4 1 2 3 4 

Rest

    3:04 (Come in with the Drums)
E |-----------------------------------------------------------------|
B |-----------------------------------------------------------------|
F#|---------------------------------------------------------8-10----|
B |-0-----0---0-----------------0-0-5-----5---5---------------------|
    1 + 2 + 3 + 4 + 1 + 2 + 3 + 4 + 1 + 2 + 3 + 4 + 1 + 2 + 3 + 4 +

E |-----------------------------------------------------------------|
B |-----------------------------------------------------------------|
F#|-8---------------------------------------------------------------|
B |-----------------------------0-0-5-----5---5-----5---5-3-2-------|
    1 + 2 + 3 + 4 + 1 + 2 + 3 + 4 + 1 + 2 + 3 + 4 + 1 + 2 + 3 + 4 +

E |-----------------------------------------------------------------|
B |-----------------------------------------------------------------|
F#|-----------------------------------------------------------------|
B |-0-0-0-0---0-0---0-0-0-0---0-0---8-----8-----8---8-8-8-8---8-8---|
    1 + 2 + 3 + 4 + 1 + 2 + 3 + 4 + 1 + 2 + 3 + 4 + 1 + 2 + 3 + 4 +

E |-----------------------------------------------------------------|
B |-----------------------------------------------------------------|
F#|-----------------------------------------------------------------|
B |-7-7-7-7-7-7-7-7-7-------7-\-----3-------3-3-3-3-5-5-5-5---5-5-5-|
    1 + 2 + 3 + 4 + 1 + 2 + 3 + 4 + 1 + 2 + 3 + 4 + 1 + 2 + 3 + 4 +

E |-----------------------------------------------------------------|
B |-----------------------------------------------------------------|
F#|-----------------------------------------------------------------|
B |-0-0-0-0---0-0---0-0-0-0---0-0---8-----8-----8---8-8-8-8---8-8---|
    1 + 2 + 3 + 4 + 1 + 2 + 3 + 4 + 1 + 2 + 3 + 4 + 1 + 2 + 3 + 4 +

E |-----------------------------------------------------------------|
B |-----------------------------------------------------------------|
F#|-3-3-3-3-3-3-3-3-3-----------------------------------------------|
B |-------------------------10\-----8-8-8-8-8-8-8-8-7-7-7-7-3-3-3-3-|
    1 + 2 + 3 + 4 + 1 + 2 + 3 + 4 + 1 + 2 + 3 + 4 + 1 + 2 + 3 + 4 +

    Chorus
E |------------------------------------------------------------------|
B |o-----------------------------------------------------------------|
F#|o-----------------------------------------------------------------|
B |--0-0-0-0---0-0---0-0-0-0---0-0---8-----8-----8---8-8-8-8---8-8---|
     1 + 2 + 3 + 4 + 1 + 2 + 3 + 4 + 1 + 2 + 3 + 4 + 1 + 2 + 3 + 4 +

E |------------------------------------------------------------------|
B |-----------------------------------------------------------------o|
F#|-3-3-3-3-3-3-3-3-3-----------------------------------------------o|
B |-------------------------10\-----8-8-8-8-8-8-8-8-7-7-7-7-3-3-3-3--|
    1 + 2 + 3 + 4 + 1 + 2 + 3 + 4 + 1 + 2 + 3 + 4 + 1 + 2 + 3 + 4 +

E |-----------------------------------------------------------------|
B |-----------------------------------------------------------------|
F#|-----------------------------------------------------------------|
B |-0---------------------------------------------------------------|
    1 + 2 + 3 + 4 + 1 + 2 + 3 + 4 + 1 + 2 + 3 + 4 + 1 + 2 + 3 + 4 +

Tabbed By Jack Mills
comments
We did not receive enough feedback on this tab! Please rate:
print report bad tab
1 2 3 4 5
I want to post or [tab]
guest
You may want to rate the tab now too:
select rating
Please do not post tabs as comments. Select "correction" instead!