Oops, an error
Loading. Please wait.

The Death Of Me Tab

version 1
version 1

Whole song

Interactive

58,250 views 117 this week
14 commentsread comments
1 2 3 4 5
excellent!
x 19
add to favorites
launch autoscroll
font size
0
reset
how to read this tab
guitar tuner
Autoscroll
slow
fast
+/-
esc
set tempo
stop
Help us to improve Ultimate-Guitar.com Take our survey!
×
Author
Difficulty
Tuning
intermediate
B F# B E G# C#
ASKING ALEXANDRIA
THE DEATH OF ME
DROP B
gtr1 & gtr2 (when needed)


[Intro/Verse] 

(a lot of notes are off beat)

C#|-------|-----------------------------------------------------------|
G#|-FADE--|-----------------------------------------------------------|
E |--IN---|-----------------------------------------------------------|
B |-------|-----------------------------------------------------------|
F#|-0~----|-----------------------------------------------------------|
B |-0~----|-0-(x8)--8-(x8)--7-(x8)--3-(x8)---0-(x8)--8-(x8)--10-(x16)-|


[Verse continued] 0:13

C#|----------------------------------------------------------------------------------|
G#|----------------------------------------------------------------------------------|
E |-----------------------------------------------------------------10-------12------|
B |-----------------------------------------------------------------x-(x8)---x-(x8)--|
F#|-0-------------8-7-7h8-0-----------10-8-7h8-0------------8-7-7h8-8--------10------|
B |-0--0-8-7h8-00--0-0----0-0-8-7h8-00--0-0----0-0-8-7h8-00--0-0---------------------|
       *       **  * *      *       **  * *      *       **  * *


[Chorus] 0:23

GTR1                                                                                  end bit
C#|----------------------------------------------------------------------------------|--------|
G#|----------------------------------------------------------------------------------|--------|
E |-----------------------------------------------------------------10-------12------|--------|
B |-----------------------------------------------------------------x-(x8)---x-(x8)--|--------|
F#|-0-------------8-7-7h8-0-----------10-8-7h8-0------------8-7-7h8-8--------10------|-0~-----|
B |-0--0-8-7h8-00--0-0----0-0-8-7h8-00--0-0----0-0-8-7h8-00--0-0---------------------|-0~-----|
GTR2   *       **  * *      *       **  * *      *       **  * *
C#|-10tr-------12tr-------13tr-------12tr-------10tr-------12tr------------------10tr|-10tr~~-|
G#|-------------------------------------------------------------------13tr-----------|--------|
E |----------------------------------------------------------------------------------|--------|
B |----------------------------------------------------------------------------------|--------|
F#|----------------------------------------------------------------------------------|--------|
B |----------------------------------------------------------------------------------|--------|


"I Won't Let You Be The Death Of Me" 0:36
GTR1
C#|---------------------------------------------------------------------|
G#|---------------------------------------------------------------------|
E |---------------------------------------------------------------------|
B |---------------------------------------------------------------------|
F#|---------------------------------------------------------------------| x2
B |--8-(x8)---5-(x8)---0-(x8)---3-(x8)---8-(x8)---10-(x8)---0-(x16)-----|
GTR2
C#|-10tr-----12tr-----13tr-----12tr-----10tr-----13tr-------------------|
G#|-------------------------------------------------------11tr-----10tr-|
E |---------------------------------------------------------------------|play only
B |---------------------------------------------------------------------|first time
F#|---------------------------------------------------------------------|
B |---------------------------------------------------------------------|..

0:55
C#|---------------------------------------------------------------------|
G#|---------------------------------------------------------------------|
E |---------------------------------------------------------------------|
B |---------------------------------------------------------------------|
F#|---------------------------------------------------------------------| x1
B |--8-(x8)---5-(x8)---0-(x8)---3-(x8)---8-(x8)---10-(x8)---0-(x16)-----|
GTR2
C#|--10tr-----13tr-----10tr--------------10tr-----13tr------------------|
G#|-----------------------------13tr-----------------------11tr-----10tr|
E |---------------------------------------------------------------------|
B |---------------------------------------------------------------------| x1
F#|---------------------------------------------------------------------|
B |---------------------------------------------------------------------|



               PLAY INTRODUCTION/VERSE   x1
           PLAY VERSE CONTINUATION   x1
                PLAY CHORUS (WITH END BIT)  x2



[Breakdown] 1:51 

C#|--------|-------------------------------------------------------------------------|
G#|--------|-------------------------------------------------------------------------|
E |--------|-------------------------------------------------------------------------|
B |effects-|-------------------------------------------------------------------------| x2
F#|--------|-0-0-0-0-000-0-0---000-0-000-0-0---0-000-0-000000-0-000000-0-------------|
B |-0000000|-0-0-0-0-000-0-0---000-0-000-0-0---0-000-0-000000-0-000000-0-8/12p0-0~~--|..
    *******  * * * * *** * *   *** * *** * *   * *** * ****** * ****** *

The the F# string ring a bit
C#|-------------------------------------------------------------------|
G#|-------------------------------------------------------------------|
E |-------------------------------------------------------------------|
B |-------------------------------------------------------------------| x1
F#|-1-1-1-1-111-1-1---111-1-111-1-1---1-111-1-111111-1-111111-1-1111--|
B |-1-1-1-1-111-1-1---111-1-111-1-1---1-111-1-111111-1-111111-1-1111--|..
    * * * * *** * *   *** * *** * *   * *** * ****** * ****** * ****   
C#|-----------------------------------------------------------------|
G#|-----------------------------------------------------------------|
E |-----------------------------------------------------------------|
B |-----------------------------------------------------------------| x1
F#|-0-0-0-0-000-0-0---000-0-000-0-0---0-000-0-000000-0-000000-0-0---|
B |-0-0-0-0-000-0-0---000-0-000-0-0---0-000-0-000000-0-000000-0-0---|
    * * * * *** * *   *** * *** * *   * *** * ****** * ****** * *


2:12
GTR1
C#|---------------------------------------------------------------------|
G#|---------------------------------------------------------------------|
E |---------------------------------------------------------------------|
B |---------------------------------------------------------------------|
F#|---------------------------------------------------------------------| x3
B |--8-(x8)---5-(x8)---0-(x8)---3-(x8)---8-(x8)---10-(x8)---0-(x16)-----|
GTR2
C#|-10tr-----12tr-----13tr-----12tr-----10tr-----13tr-------------------|
G#|-------------------------------------------------------11tr-----10tr-|
E |---------------------------------------------------------------------|play on 1st
B |---------------------------------------------------------------------|and 3rd repeat
F#|---------------------------------------------------------------------|
B |---------------------------------------------------------------------|..


2:43
GTR1
C#|---------------------------------------------------------------------|
G#|---------------------------------------------------------------------|
E |---------------------------------------------------------------------|
B |---------------------------------------------------------------------|
F#|---------------------------------------------------------------------| x1
B |--8-(x8)---5-(x8)---0-(x8)---3-(x8)---8-(x8)---10-(x8)---12-(x16)----|
GTR2                                                                     2:52
C#|-15tr-----13tr-----12tr--------------15tr-----17tr-------------------|----|
G#|----------------------------15tr-----------------------11tr-----10tr-|----|
E |---------------------------------------------------------------------|----|
B |---------------------------------------------------------------------|----| x1 
F#|---------------------------------------------------------------------|-0~-|
B |---------------------------------------------------------------------|-0~-|


[Interludy thing] 2:55

GTR1                                                           |
C#|------------------------------------------------------------|
G#|------------------------------------------------------------|
E |-7-5-7-x-7-x-7-5-7-x-7-x-7-5-3-5-x-5-x-5-3-5-x-5-x-5-3-0-3-x|
B |------------------------------------------------------------|
F#|------------------------------------------------------------|
B |------------------------------------------------------------|

                                              x2
|------------------------------------------------|
|------------------------------------------------|
|-3-x-3-0-3-x-3-x-3-10-7-10-x-10-x-9-7-9-x-9-x-9-|
|------------------------------------------------|
|------------------------------------------------|
|------------------------------------------------|

GTR2  *           *             *           *           |
C#|------------------------------------------10---------|
G#|----------------/11~-10~~-/13~-11~~-11-13----13-11-10|
E |-10~~-/14~-12~~--------------------------------------|
B |-----------------------------------------------------|
F#|-----------------------------------------------------|
B |-----------------------------------------------------|

  *           *              *             *       
|-10~~-/13~-12~~-/15~-13~~-/17~-15~~-13-15-13-12--|
|-------------------------------------------------|
|-------------------------------------------------|
|-------------------------------------------------| 
|-------------------------------------------------|
|-------------------------------------------------|


"Im Blind With Rage"                              x1                                               x3
C#|------------------------------------------------|------------------------------------------------|
G#|------------------------------------------------|------------------------------------------------|
E |------------------------------------------------|------------------------------------------------|
B |------------------------------------------------|------------------------------------------------|
F#|------------------------------------------------|------------------------------------------------|
B |--0-(x16)---8-(x16)---7-(x16)----0-(x8)-5-(x8)--|-0-(x16)---8---(x16)---10-(x16)---8-(x8)-7-(x8)-|


End On
C#|------|
G#|------|
E |------|
B |-0~---|
F#|-0~---|
B |-0~---|

please rate and comment :)



************************************

| x  Dead note
| h  Hammer-on
| p  Pull-off
| /  Slide up
| ~  Vibrato

************************************
Suggest correction
comments
print report bad tab
14 comments total. Showing first comments.
0 reply
GBpackfan1205 10 wrote on June 3 2013, 04:05 pm

Very good tab

0 reply
deathfromala 3,178 wrote on June 3 2013, 05:43 pm

Haha thanks. Thought you would like it :P

0 reply
GBpackfan1205 10 wrote on June 4 2013, 10:20 pm

Haha... How'd you know!:P

guest
You may want to rate the tab now too:
select rating
Please do not post tabs as comments. Select "correction" instead!