Oops, an error
Loading. Please wait.

The Death Of Me Tab

version 2
version 2

Whole song

Interactive

4,547 views 9 this week
1 commentread comment
1 2 3 4 5
not so good
x 2
add to favorites
launch autoscroll
font size
0
reset
how to read this tab
guitar tuner
Tab Pro tools
  • play this tab
  • loop segment
  • change instrument
  • show fretboard
  • metronome
Autoscroll
slow
fast
+/-
esc
set tempo
stop
Contributor
Tuning
B F# B E G# C#
Asking Alexandria - The Death of Me (Rock Mix)

Intro
C#|--------------------------------------------------------------------------|
G#|--------------------------------------------------------------------------|
E |--------------------------------------------------------------------------|
B |--(*8)-------------------(*8)--------------(*16)--------------------------|
F#|--------------------------------------------------------------------------|
B |-0----8-----7------3-------0------8------10-------------------------------|


Verse Riff
C#|---------------------------------------------------------------------------|
G#|---------------------------------------------------------------------------|
E |---------------------------------------------------------------------------|
B |-----------------------------------------------------------------(*8)------|
F#|-0----1-0h1--8-7-7h8-----1--0h1-----10-8-7h8--1-0h1----8-7-7h8--8--10------|
B |-0-0---0---00-0-0----0-0-1------00-0-0--0-0---1-----00--0-0----------------|


Chorus
C#|---------------------------------------------------------------------|
G#|---------------------------------------------------------------------|
E |---------------------------------------------------------------------|
B |---------------------------------------------------------------------|
F#|---------------------------------------------------------------------| x6
B |--8-(x8)---5-(x8)---0-(x8)---3-(x8)---8-(x8)---10-(x8)---0-(x16)-----|

Verse Riff
C#|---------------------------------------------------------------------------|
G#|---------------------------------------------------------------------------|
E |---------------------------------------------------------------------------|
B |-----------------------------------------------------------------(*8)------|
F#|-0----1-0h1--8-7-7h8-----1--0h1-----10-8-7h8--1-0h1----8-7-7h8--8--10------|
B |-0-0---0---00-0-0----0-0-1------00-0-0--0-0---1-----00--0-0----------------|

Chorus 2
C#|--------------------------------------------------------------------------|
G#|--------------------------------------------------------------------------|
E |--------------------------------------------------------------------------|
B |--------------------------------------------------------------------------|
F#|---------------------------------------------------------------------x6---|
B |--8-(x8)---5-(x8)---0-(x8)---3-(x8)---8-(x8)---10-(x8)---0-(x16)----------|

Open
C#|------------------------------------------------------------------------|
G#|------------------------------------------------------------------------|
E |------------------------------------------------------------------------|
B |----0-------------------------------------------------------------------|
F#|----0-------------------------------------------------------------------|
B |----0~------------------------------------------------------------------|



Bridge
C#|--------------------------------------------------------------|
G#|--------------------------------------------------------------|
E |-7-5-7---7---7-5-7---7---7-5-3-5---5---5-3-5---5---5-3-0-3----|
B |--------------------------------------------------------------|
F#|--------------------------------------------------------------|
B |--------------------------------------------------------------|


   -----------------------------------------------------------|
   -----------------------------------------------------------|
   -3---3-0-3---3---3-10-7-10---10---9-7-9---9---9------------|
   -----------------------------------------------------------|
   -----------------------------------------------------------|
   -----------------------------------------------------------|

Final Chorus x3
C#|--------------------------------------------------------------------------|
G#|--------------------------------------------------------------------------|
E |--------------------------------------------------------------------------|
B |------------(x16)---------------------------------(x16)-------------------|
F#|--------------------------(x8)----------------------------------(x8)------|
B |--0-----8------7--------0------5------0-------8------10-------8------7----|
comments
We did not receive enough feedback on this tab! Please rate:
print report bad tab
1 2 3 4 5
1 comment total.
0 reply
Audible Warfare wrote on August 16 2013, 05:47 pm

I stick with the first tab of this song. Good try though.

I want to post or [tab]
guest
You may want to rate the tab now too:
select rating
Please do not post tabs as comments. Select "correction" instead!