Oops, an error
Loading. Please wait.

The Final Episode Lets Change The Channel Tab

version 1
version 1
241,989 views 135 this week
15 commentsread comments
1 2 3 4 5
accurate
x 18
add to favorites
launch autoscroll
font size
0
reset
how to read this tab
guitar tuner
Autoscroll
slow
fast
+/-
esc
set tempo
stop
Help us to improve Ultimate-Guitar.com Take our survey!
×
Author
Difficulty
Tuning
intermediate
D A D G B E
[Intro] 

E|------------------------------------------------------------------------------------------------|
B|------------------------------------------------------------------------------------------------|
G|------------------------------------------------------------------------------------------------|
D|-------------------------------------------------------------------------3-----2-----5---3---2/3|
A|-0-0-0-0-0-0-0-0-0-0-0-0-0-0-0-0---------0-0-0-0-0-0-0-0-0-0-0-0-0-0-0-0------------------------|
D|-0-0-0-0-0-0-0-0-0-0-0-0-0-0-0-0---------0-0-0-0-0-0-0-0-0-0-0-0-0-0-0-0---0-0---0-0---0---0----|
   . . . . . . . . . . . . . . . .         . . . . . . . . . . . . . . . .   . .   . .   .   .

E|----------------------------------------------------------------------|
B|----------------------------------------------------------------------|
G|----------------------------------------------------------------------|
D|--------------------------------------7-----5-----3-----3---5---3~----|
A|-8-8-8-8-8-8-8-8-8-8-8-8-8-8-8-8-8-8----------------------------------|
D|-8-8-8-8-8-8-8-8-8-8-8-8-8-8-8-8-8-8----0-0---0-0---0-0---0---0-------|
   . . . . . . . . . . . . . . . . . .    . .   . .   . .   .   . 

E|----------------------------------------------------------|
B|----------------------------------------------------------|
G|----------------------------------------------------------|
D|------------------------------------5-----3-----2---3---2~|
A|-5-5-5-5-5-5-5-5-5-5-5-5-5-5-5-5-5------------------------|
D|-5-5-5-5-5-5-5-5-5-5-5-5-5-5-5-5-5----0-0---0-0---0---0---|(x2)
   . . . . . . . . . . . . . . . . .    . .   . .   .   .
                         

[Verse 1] (x4)

E|----------------------------------------------------------------------------------------------------|
B|----------------------------------------------------------------------------------------------------|
G|----------------------------------------------------------------------------------------------------| 
D|-3-----2-----5---3---2/3---3-----2-----5---3--2/3--7-----5-----7---5---3~5--5-----3-----5---3---2-~3|
A|----------------------------------------------------------------------------------------------------|
D|---0-0---0-0---0---0-----0---0-0---0-0---0--0--------0-0---0-0---0---0--------0-0---0-0---0---0-----|
     . .   . .   .   .     .   . .   . .   .  .        . .   . .   .   .        . .   . .   .   .
 

[Pre-Chorus] (x2)

E|-------------------------------------13~--------------------------------------------------------|
B|-------------------------------------13~--------------------------------------------------------|
G|------------------------------------------------------------------------------------------------|
D|-------------------------------------------------------------------------3-----2-----5---3---2/3|
A|-0-0-0-0-0-0-0-0-0-0-0-0-0-0-0-0--0------0-0-0-0-0-0-0-0-0-0-0-0-0-0-0-0------------------------|
D|-0-0-0-0-0-0-0-0-0-0-0-0-0-0-0-0--0------0-0-0-0-0-0-0-0-0-0-0-0-0-0-0-0---0-0---0-0---0---0----|
   . . . . . . . . . . . . . . . .         . . . . . . . . . . . . . . . .   . .   . .   .   .


E|----------------------------------------------------------------------|
B|----------------------------------------------------------------------|
G|----------------------------------------------------------------------|
D|--------------------------------------7-----5-----3-----3---5---3~----|
A|-8-8-8-8-8-8-8-8-8-8-8-8-8-8-8-8-8-8----------------------------------|
D|-8-8-8-8-8-8-8-8-8-8-8-8-8-8-8-8-8-8----0-0---0-0---0-0---0---0-------|
   . . . . . . . . . . . . . . . . . .    . .   . .   . .   .   . 

E|----------------------------------------------------------|
B|----------------------------------------------------------|
G|----------------------------------------------------------|
D|------------------------------------5-----3-----2---3---2~|
A|-5-5-5-5-5-5-5-5-5-5-5-5-5-5-5-5-5------------------------|
D|-5-5-5-5-5-5-5-5-5-5-5-5-5-5-5-5-5----0-0---0-0---0---0---|
   . . . . . . . . . . . . . . . . .    . .   . .   .   .
                             

[Chorus]

E|---------------------------------------------------------------|
B|---------------------------------------------------------------|
G|---------------------------------------------------------------|
D|-0--0-0-0-0--0-0-0-0--8--8-8-8-8--8-8-8-8--5--5-5-5-5--5-5-5-5-|             
A|-0--0-0-0-0--0-0-0-0--8--8-8-8-8--8-8-8-8--5--5-5-5-5--5-5-5-5-|
D|-0--0-0-0-0--0-0-0-0--8--8-8-8-8--8-8-8-8--5--5-5-5-5--5-5-5-5-|(x2)
                                                          
E|----------------------------------------------------|
B|----------------------------------------------------|
G|----------------------------------------------------|
D|-------2-2/3-------3-3/5-------5-5/7-5-7-5-7-3-5-3-2|
A|-0-0-0-------0-0-0-------0-0-0----------------------|
D|-0-0-0-------0-0-0-------0-0-0----------------------|
   . . .       . . .       . . .

E|-------------------------|
B|-------------------------|
G|-------------------------|
D|-------2-2/3-------3-3/5-|
A|-0-0-0-------0-0-0-------|
D|-0-0-0-------0-0-0-------|
   . . .       . . .       


[Verse 2]

E|---------------------------------------------------------------|
B|---------------------------------------------------------------|
G|---------------------------------------------------------------|
D|---------------------------------------------------------------|   
A|-0-0-0--0-0-0--0-0-0--0-0-0--0-0-0-0-0--0-0-----0-0--0-0-0--0-0|
D|-0-0-0--0-0-0--0-0-0--0-0-0--0-0-0-0-0--0-0-----0-0--0-0-0--0-0|(x4)
   . . .  . . .  . . .  . . .  . . . . .  . .     . .  . . .  . .

E|-------------------------------------------|
B|-------------------------------------------|
G|-------------------------------------------|
D|-------------------------------------------|        
A|-0-0--0-0--0-0--0-0-----------------0-0-0-0|
D|-0-0--0-0--0-0--0-0-----------------0-0-0-0|(x4)


[Chorus]

E|---------------------------------------------------------------|
B|---------------------------------------------------------------|
G|---------------------------------------------------------------|
D|-0--0-0-0-0--0-0-0-0--8--8-8-8-8--8-8-8-8--5--5-5-5-5--5-5-5-5-|             
A|-0--0-0-0-0--0-0-0-0--8--8-8-8-8--8-8-8-8--5--5-5-5-5--5-5-5-5-|
D|-0--0-0-0-0--0-0-0-0--8--8-8-8-8--8-8-8-8--5--5-5-5-5--5-5-5-5-|(x2)
                                                          
E|----------------------------------------------------|
B|----------------------------------------------------|
G|----------------------------------------------------|
D|-------2-2/3-------3-3/5-------5-5/7-5-7-5-7-3-5-3-2|
A|-0-0-0-------0-0-0-------0-0-0----------------------|
D|-0-0-0-------0-0-0-------0-0-0----------------------|
   . . .       . . .       . . .

E|-9-9-9-9|
B|-7-7-7-7|
G|--------|
D|--------|
A|--------|
D|--------|


[Verse 3]

E|------------------------------------------------|
B|---------------------------------------6-7-6----|
G|---------------------------------5-7-8-------8-5|    
D|------------------------------------------------|
A|-0-0-0-0-0--0-0-0-0-0--0-0-0-0-0----------------|
D|-0-0-0-0-0--0-0-0-0-0--0-0-0-0-0----------------|(x4)
   . . . . .  . . . . .  . . . . .


[Outro]

E|--------------------------------|
B|--------------------------------|
G|--------------------------------|    
D|--------------------------------|
A|0-0-0--0-0-0--0-0-0--------0-0-0|
D|0-0-0--0-0-0--0-0-0--------0-0-0|(x4)
  . . .  . . .  . . .        . . .


E|-------------------------------|
B|-------------------------------|
G|-------------------------------|    
D|-------------------------------|
A|0-0-0--0-0-0--------------0-0-0|
D|0-0-0--0-0-0--------------0-0-0|(x2)
  . . .  . . .              . . .
 
E|-------------------------------|
B|-------------------------------|
G|-------------------------------|    
D|-------------------------------|
A|0-0-0--0-0-0--------------0-0-0|
D|0-0-0--0-0-0--------------0-0-0|(x2)
  . . .  . . .              . . .

************************************

| /  Slide up
| ~  Vibrato
| .  pal mute

************************************
Suggest correction
comments
print report bad tab
15 comments total. Showing first comments.
+2 reply
heywhatsupdude 83 wrote on October 11 2009, 08:21 pm

pretty good but the part where you said 13 on the e and b strings isnt right. it' supposed to be a pinch harmonic. haha but 5 stars anyway =]

0 reply
italo.cavalcant 82 wrote on November 21 2009, 04:12 pm

AHAHAHAHAHAHA .... I had noticed it ... but just missing that part for the music to be 100% ...but thanks man: D

0 reply
tancanada 311 wrote on December 11 2009, 07:45 pm

lol discount?

guest
You may want to rate the tab now too:
select rating
Wanna post a correction for this tab? Suggest correction