Oops, an error
Loading. Please wait.

The Final Episode Lets Change The Channel Tab

version 2
version 2
98,631 views 312 this week
3 commentsread comments
1 2 3 4 5
excellent!
x 11
add to favorites
launch autoscroll
font size
0
reset
how to read this tab
guitar tuner
Tab Pro tools
  • play this tab
  • loop segment
  • change instrument
  • show fretboard
  • metronome
×
Best way to learn
"The Final Episode Lets Change The Channel"
Autoscroll
slow
fast
+/-
esc
set tempo
stop
Contributor
Difficulty
Tuning
intermediate
D A D G B E
Final Episode (Let's Change The Channel)
Asking Alexandria.

Please rate and comment.




my cover(wtfxsteven)
http://www.youtube.com/watch?v=LfZmtWNqq9A




Drop D




Intro
e|-------0~~--------------------------|
B|-------0~~--------------------------|
G|------------------------------------|
D|--0~--------\piclslide\-------------|
A|--0~--------\pickslide\-------------|
E|--0~--------\pickslide\-------------|





-----------------------------------------------------------------------







Verse 1 x2 (guitar 1)
e|---------------------------------------------------------|
B|---------------------------------------------------------|
G|---------------------------------------------------------|
D|---------------------------------------------------------|
A|-000000000000--000000000000--8-----7-----10---8---7h8----|
E|-000000000000--000000000000----0-0---0-0----0---0--------|
   ............  ............    . .   . .    .   .



e|--------------------------------------------------|
B|--------------------------------------------------|
G|--------------------------------------------------|
D|--------------------------------------------------|
A|-888888888888--12-----10-----8---10---8-----------|
E|-888888888888-----8-8----8-8---8----8-------------|
   ............     . .    . .   .    .




e|-------------------------------------------------|
B|-------------------------------------------------|
G|-------------------------------------------------|
D|-------------------------------------------------|
A|-777777777777--10-----8-----7---8---7------------|
E|-777777777777-----7-7---7-7---7---7--------------|
   ............     . .   . .   .   .









-------------------------------------------------------------------------










Verse 2 x4 (guitar 1)
e|------------------------------------------------------------|
B|------------------------------------------------------------|
G|------------------------------------------------------------|
D|------------------------------------------------------------|
A|--8-----7-----10---8---7h8---8-----7-----10---8---7h8-------|
E|----0-0---0-0----0---0---------0-0---0-0----0---0-----------|
      . .   . .    .   .         . .   . .    .   .




e|----------------------------------------------------------|
B|----------------------------------------------------------|
G|----------------------------------------------------------|
D|----------------------------------------------------------|
A|--12-----10-----8---10---8-----10-----8-----7---8---7-----|
E|-----0-0----0-0---0----0----------0-0---0-0---0---0-------|
       . .    . .   .    .          . .   . .   .   .






 Guitar 2
e|------------------------------------------------------------------|
B|------------------------------------------------------------------|
G|------------------------------------------------------------------|
D|------------------------------------------------------------------|
A|--12-----10-----13---12---10h12---15-----13-----12-----13---10----|
E|--------0--0---0--0----0-------------0-0---0-0----0---0-----------|
          .  .   .  .    .             . .   . .    .   .








-----------------------------------------------------------------------------








Pre-Chorus
e|------------------------------------------------------------------|
B|------------------------------------------------------------------|
G|------------------------------------------------------------------|
D|-------------------4*b--------------------------------------------|
A|--000000000000----------000000000000--8-----7-----10---8---7h8----|
E|--000000000000--0-------000000000000----0-0---0-0----0---0--------|
    ............  .       ............    . .   . .    .   .






e|--------------------------------------------------|
B|--------------------------------------------------|
G|--------------------------------------------------|
D|--------------------------------------------------|
A|-888888888888--12-----10-----8---10---8-----------|
E|-888888888888-----8-8----8-8---8----8-------------|
   ............     . .    . .   .    .





e|-------------------------------------------------|
B|-------------------------------------------------|
G|-------------------------------------------------|
D|-------------------------------------------------|
A|-777777777777--10-----8-----7---8---7------------|
E|-777777777777-----7-7---7-7---7---7--------------|
   ............     . .   . .   .   .





Repeat Verse 1 x1


 Guitar 1 x2
e|-------------------------------------------------------------------------|
B|-------------------------------------------------------------------------|
G|-------------------------------------------------------------------------|
D|--0--------7--------8--------5-------------------------------------------|
A|--0-x4-----7-x4-----8-x10----5-x6-------8---7h8---x2---7h8-8-8-8p7-------|
E|--0--------7--------8--------5------000---0------------------------------|
                                      ...   .



 Guitar 2 x2 (play this with the bar thats right on top of this one ^^^)
e|--------------------------------------|
B|------17~-17/18~-17~------------------|
G|---14~----------------15~-14~~~-------|    this is what play's in the
D|--------------------------------------|    background during the verse.
A|--------------------------------------|    (with delay ofcourse)
E|--------------------------------------|




 Breakdown intro?
e|--------------------------------------------|
B|--------------------------------------------|
G|---------------------------------------9*/--|
D|--------------------------------------------|
A|------8---7h8------8---7h8------------------|
E|--000---0------000---0-------000-000--------|
    ...   .      ...   .       ... ...






Breakdown(both guitars)
e|-----------------------------------------------|
B|-----------------------------------------------|
G|-----------------------------------------------|
D|-----------------------------------------------|
A|--000-000-000-000--0000-0-0--0000-0-0-0-0------|
E|--000-000-000-000--0000-0-0--0000-0-0-0-0------|
    ... ... ... ...  .... . .  .... . . . .






e|-------------------------------------------|
B|-------------------------------------------|
G|-------------------------------------------|
D|-------------------------------------------|
A|--000-000-000-000--0000-0-0--000-0-0-000---|
E|--000-000-000-000--0000-0-0--000-0-0-000---|
    ... ... ... ...  .... . .  ... . . ...




e|-----------------------------------------------|
B|-----------------------------------------------|
G|-----------------------------------------------|
D|-----------------------------------------------|
A|--000-000-000-000--0000-0-0--0000-0-0-0-0------|
E|--000-000-000-000--0000-0-0--0000-0-0-0-0------|
    ... ... ... ...  .... . .  .... . . . .




e|----------------------------------------|
B|----------------------------------------|
G|----------------------------------------|
D|----------------------------------------|
A|--000-000-000-000--0000-0-0--0-0000-----|
E|--000-000-000-000--0000-0-0--0-0000-----|
    ... ... ... ...  .... . .  . ....




Breakdown Continues(both guitars)
e|------------------------------------------------|
B|------------------------------------------------|
G|------------------------------------------------|
D|------------------------------------------------|
A|-00-00-00-00----000-----00-00-00-00---000000----|
E|-00-00-00-00----000-----00-00-00-00---000000----|
   .. .. .. ..    ...     .. .. .. ..   ......




e|----------------------------------------------------|
B|----------------------------------------------------|
G|----------------------------------------------------|
D|----------------------------------------------------|
A|--00~-00~-00~-00~---000~---00~-00~-00~-00~---000----|
E|--00~-00~-00~-00~---000~---00~-00~-00~-00~---000----|
    ..  ..  ..  ..    ...    ..  ..  ..  ..    ...





------------------------------------------------------------------------



Repeat Chorus




----------------------------------------------------------------------






Bridge-strum
e|-----------------------------------|
B|-----------------------------------|
G|-----------------------------------|
D|--00000-00000--------------5*------|
A|--00000-00000-(bass)-0000----------|
E|--00000-00000--------0000----------|
                       ....


 Guitar 1
e|--------------------------------------------------------------------|
B|--------------------------------------------------------------------|
G|-------------------------8-5----------------------------10-7--------|
D|---------------------0-5-----7----------------------0-7------9------| x4
A|--00000-00000-00000------------8--00000-00000-00000------------10---|
E|--00000-00000-00000---------------00000-00000-00000-----------------|
    ..... ..... .....               ..... ..... .....



 Guitar 2
e|----------------------------------------------------------------------|
B|----------------------------------------------------------------------|
G|-------------------------10-7------------------------------12-9-------|
D|---------------------0-7------9------------------------0-9------11----| x4
A|--00000-00000-00000-------------10--00000-00000-00000-------------12--|
E|--00000-00000-00000-----------------00000-00000-00000-----------------|
    ..... ..... .....               ..... ..... .....






e|-------|
B|-------|
G|-------|
D|--0~---|
A|--0~---|
E|--0~---|







3:33
Outro x2 (second time through don't play last 3 \/ \/ \/ notes)
e|--------------------------------------------------------------|
B|--------------------------------------------------------------|
G|--------------------------------------------------------------|
D|--------------------------------------------------------------|
A|--000~-000~--0-0-0---0-0-0-------000~-000~-0~--0~-0~-0~-------|
E|--000~-000~--0-0-0---0-0-0--x2---000~-000~-0~--0~-0~-0~--x2---|
    ...  ...           . . .       ...  ...  .   .  .  .

e|----------|
B|----------|
G|----------|
D|--0-0-0---|
A|--0-0-0---|
E|--0-0-0---|
comments
print report bad tab
3 comments total.
+3 reply
FIGJAMpAnAnAz wrote on March 18 2011, 06:49 am

Why did you remove your video from youtube, anyway really good tab.

+2 reply
theboss123 wrote on August 17 2012, 03:44 pm

Would it be so bad if i covered this and replaced the lyrics oh my god with lol as a parody?

0 reply
chewy1297 wrote on December 10 2014, 01:36 pm

not at all

I want to post or [tab]
guest
You may want to rate the tab now too:
select rating
Please do not post tabs as comments. Select "correction" instead!